Song name
# A B C D E F G H I J K L M N O P Q R S T U V W X Y Z

Raul Midon - State Of Mine tab

ELO- State of mind.

This is the intro to my personal favourite on the zoom album, I am positive after 
Jeff Lynne that this is the way he is playing it.


Intro riff.

e|----------------------------------------------|
B|----------------------------------------------|
G|----------------------------------------------|
D|-----------------3----------------------------|
A|-----------6-6-5----------6-6-5-3-------------|
E|-----3-3-5----------3-3-5---------------------|

The riff plays pretty much throughout the track but later it changes slightly


e|----------------------------------------------|
B|----------------------------------------------|
G|----------------------------------------------|
D|-------------------3--------------------------|
A|-----------3-6-6-5---------3-6-6-5-3----------|
E|-----3-3-5-----------3-3-5--------------------|

Pretty simple really.  Enjoy.
Tap to rate this tab
# A B C D E F G H I J K L M N O P Q R S T U V W X Y Z