Guitaretab - guitar tabs
Song name
# A B C D E F G H I J K L M N O P Q R S T U V W X Y Z

Rauli Badding Somerjoki - Paratiisi tab

i was so tired searching for the chords or even the tabs for dis lovely song from the 
the results was zero.. so i decided to figure out the chords and the solos myself.. it 
quite alike.. enjoy!!

~PARATIISI~

-intro-

-8-7-----------------------------------------------------0-4-5----------|
-----10--10-12-10---8-6-5--5-6-5--5-6-8-6-5-3--1/3-1---1----------------|
-----------------------------------------------------2------------------|
------------------------------------------------------------------------|
------------------------------------------------------------------------|
------------------------------------------------------------------------|

-verse-

       Am                  C
Kun mä sinut kohtasin, oli ilta ihanin
       G                   E
linnut lauloi ja kimmelsi taivaan kuu
       Am                     C
Sinä sanoit menkäämme, maalle meidän landelle.
       G                    Am
mietin nyt juttu tää onnistuu


     Am                       C
Perille kun saavuttiin, kukat kukki tuoksui niin
      G                  E
meri vaahtosi kuin olut kuohuaa
     Am                        C
Heti rantaan kuljettiin, liiat kuteet riisuttiin,
     G                    Am
oli tunnelma niin huumaavaa.


-chorus-

       G                            C
Oi jos sulle voisin antaa kaikkein kauneimman
       Am               E
tämän maailmani pallon valtavan
      Am                   C
mutta enhän sitä tee pieni hetki riittänee
        G                     Am
kun sun vierelläsi näin olla saan


-the solo part-
[ Tab from: http://www.guitaretab.com/r/rauli-badding-somerjoki/44554.html ]
-8-7----------------------------------------5-8-8-7-----------------------|
-----10--10-12-10---8-6-5--5-6-5---5-3h5---5---------10-9-10-12-----------|
----------------------------------------5---------------------------------|
--------------------------------------------------------------------------|
--------------------------------------------------------------------------|
--------------------------------------------------------------------------|

-8-8-7------------------------------------------10/12--15p12-10-8-------|
-------10--10-12-10--10-12-13--13p12-13p12-10--------------------10-----|
------------------------------------------------------------------------|
------------------------------------------------------------------------|
------------------------------------------------------------------------|
------------------------------------------------------------------------|

then continue struming these chords..

> G, C, Am, E <

> Am, C, G, Am <


       Am                        C
Varret yhteen kiedottiin, hiekka tarttui varpaisiin,
       G                     E
meren kiihkeään rytmiin kun vaivutiin
       Am                         C
pientä huulta heitit kai, suoraan suusta suuhun vain,
       G                      Am
näistä aikuiset puhuu kuiskuttain


-repeat chorus-


-outro- (juz like intro)

-8-7-----------------------------------------------------0-4-5----------|
-----10--10-12-10---8-6-5--5-6-5--5-6-8-6-5-3--1/3-1---1----------------|
-----------------------------------------------------2------------------|
------------------------------------------------------------------------|
------------------------------------------------------------------------|
------------------------------------------------------------------------|

~a memorable song for Ville~
Related for Paratiisi tab
×
Paratiisi