Song name
# A B C D E F G H I J K L M N O P Q R S T U V W X Y Z

Raulin Rodriguez - Mujer Infiel tab

  I try to search up the songs on google I don't think the tabs for this song are
available but it's so beautiful.  I only got the intro from requinto 31 on youtube.  
PLEASE RATE!!!!!!!!!!!!!!!!!!!!

El Flako

Capo on 8


e|-----------------------------------------11--119-0--------9-0----------|
B|-13-13-13-13-13--1113-14--14--11-11-11-11------------9-9-9----11-------|
G|-----------------------------------------------------------------------|
D|-----------------------------------------------------------------------|
A|-----------------------------------------------------------------------|
E|-----------------------------------------------------------------------|


e|-------------------------------------------------------|
B|-------------13--11---------13-13-13-13-13-1113-14--14-|
G|-12-12-12-12-------13--10------------------------------|
D|-------------------------------------------------------|
A|-------------------------------------------------------|
E|-------------------------------------------------------|


e|-----------------------------------------------------------------------|
B|11-11-11-11-11--9-11-13-13--9-9-9-9-9-0-11--11---------------------9-9-|
G|-----------------------------------------------12-12-12-12-12-10-12----|
D|-----------------------------------------------------------------------|
A|-----------------------------------------------------------------------|
E|-----------------------------------------------------------------------|


e|----------------------------------------11--119-0----------9-0-----|
B|13-13-13-13-13-1113-14--14---11-11-11-11-----------9-9-9-9-----11--|
G|-------------------------------------------------------------------|
D|-------------------------------------------------------------------|
A|-------------------------------------------------------------------|
E|-------------------------------------------------------------------|


e|---9--8----------------|
B|13------11-------------|
G|--------------13--1210-|
D|-----------------------|
A|-----------------------|
E|-----------------------|




CARAJO COŅO!!!!
Tap to rate this tab
 
# A B C D E F G H I J K L M N O P Q R S T U V W X Y Z