Song name
# A B C D E F G H I J K L M N O P Q R S T U V W X Y Z

Raunchy - A Heavy Burden tab

Artist: Raunchy
Song: A Heavy Burden
Tabbed By: Aleksi Huhtala .aka. AkZ

Tuning: Drop B (B-F#-B-E-G#-Db)

h - Hammer On
p - Pull Off
~ - Vibrato
* - Palm Mute
x - Muted String

NOTES: This tab is for playing the song with just one guitar. Didn't tab some parts of 
Rhythm Guitar.
This tab is so that you can get the baseline of how the song is played. The rest is up 
you ;)

Some of the note counts aren't exactly how many times you should play a note. They are 
directional.


Intro (Clean) x 2:

|------------------------------------------------------------------------------------------|
|------------------------------------------------------------------------------------------|
|--10--------9-------9-----10-------9-------9-----7------5------5-----7-----9-------9------|
|-----12-------12------12-----12------12------12----8------8------8-----8-----10------10---|
|--------12-------12-------------12------12-----------8------8------------8------10--------|
|------------------------------------------------------------------------------------------|

- OR - (Easier for the fingers)

|-----------------------------------------------------------------------------|
|--6-----5------5----6------5------5-----3------1-----1----3-----5-----5------|
|----7-----7------7----7------7------7-----3------3-----3----3-----5-----5----|
|------7-----7-----------7------7------------3------3----------3-----5--------|
|-----------------------------------------------------------------------------|
|-----------------------------------------------------------------------------|


CHORUS x 2:

|----------------------------------------------------------------------|
|--8--8--8--7---7--7--7---5--5--5--3---3--3--3--5--5--5--7---7--7--7---|
|--x--x--x--x---x--x--x---x--x--x--x---x--x--x--x--x--x--x---x--x--x---|
|--10-10-10-9---9--9--9---7--7--7--5---5--5--5--7--7--7--9---9--9--9---|
|----------------------------------------------------------------------|
|----------------------------------------------------------------------|

CHORUS SOLO x 1:


|-------------------------------------------------------------------------------------------|
|---------------------11--10----10--------------------------------10------10h11-10----------|
|--10-9-10-12---10-12--------12-----12-10-----10-9-10-12--10-12------12-----------12-10-12--|
|-----------------------------------------10------------------------------------------------|
|-------------------------------------------------------------------------------------------|
|-------------------------------------------------------------------------------------------|

|----------------------------------------------------------------------------------------------|
|--------------------11--10----10-------------------------------------------10h11-10-----------|
|--10-9-10-12--10-12--------12----12-10-----10-9-10-12--10-12-9999~~----10h12----------12p9-10-|
|---------------------------------------10-----------------------------------------------------|
|----------------------------------------------------------------------------------------------|
|----------------------------------------------------------------------------------------------|

VERSE:

|---------------------------------------------------------------------|
|---------------------------------------------------------------------|
|---------------------------------------------------------------------|
|---------------------------------------------------------------------|
|------------------------------------------------------8-7-------7----|
|--0--0-0-0--0-0-0-0---8-7-5-7~-5-3-0--0-0-0--0-0-0-0------0-10~---10-|
      * * *  * * * *                   * * *  * * * *      *

----------------------------------------------|
----------------------------------------------|
--------------------------------2--2-2-6--6-6-|
--------------------------------2--2-2-6--6-6-|
--------------------------------0--0-0-4--4-4-|
-8--8-8-8--8-8-8-8-8-7-5-7~-5-3---------------|
    * * *  * * * *

|---------------------------------------------------------------------------------------|
|---------------------------------------------------------------------------------------|
|---------------------------------------------------------------------------------------|
|---------------------------------------------------------------------------------------|
|-8-7--------7-----------------------------------------------------------8-7-------7----|
|------0-10----10----0--0-0-0--0-0-0-0---8-7-5-7~-5-3-0--0-0-0--0-0-0-0------0-10~---10-|
       *                **************                   **************      *

----------------------------------------------|
----------------------------------------------|
--------------------------------2--2-2-6--6-6-|
--------------------------------2--2-2-6--6-6-|
--------------------------------0--0-0-4--4-4-|
-8--8-8-8--8-8-8-8-8-7-5-7~-5-3---------------|
    * * *  * * * *

BRIDGE x 1:

|----------------------------------------------------------|
|----------------------------------------------------------|
|----------------------------------------------------------|
|----------------------------------------------------------|
|----------------------------------------------------------|
|--0-0-0-0-0-0-0-0-0-0-0-0-3-3-3-3-3-3-3-3-2-2-2-2-2-2-2-2-|
   *******************************************************

-------------------------------------------------------------------|
-------------------------------------------------------------------|
-----7-7-----7-7------7-7------7-7-----------------2-2-2-2-6-6-6-6-|
-----7-7-----7-7------7-7------7-7----3-3-3-3-3-3--2-2-2-2-6-6-6-6-|
-----5-5-----5-5------5-5------5-5----3-3-3-3-3-3--0-0-0-0-4-4-4-4-|
-0-0-----0-0------0-0------0-0--------3-3-3-3-3-3------------------|
 ***     ***      ***      ***        ***********  ********

[CHORUS] x 4

[CHORUS SOLO] x1

VERSE:

|------------------|
|------------------|
|------------------|
|------------------|
|--8-7-------7-----|
|------0-10~---10--|
       *


|-----------------------------------------------------|
|-----------------------------------------------------|
|-----------------------------------------------------|
|-----------------------------------------------------|
|-----------------------------------------------------|
|--0--0-0-0--0-0-0-0---8-7-5-7~-5-3-0--0-0-0--0-0-0-0-|
      * * *  * * * *                   * * *  * * * *


--------------------------------------------------------------|
--------------------------------------------------------------|
-----------------------------------------------2--2-2-6--6-6--|
-----------------------------------------------2--2-2-6--6-6--|
-8-7-------7-----------------------------------0--0-0-4--4-4--|
-----0-10~---10-8--8-8-8--8-8-8-8-8-7-5-7~-5-3----------------|
     *             * * *  * * * *


|------------------------------------------------------------------------|
|------------------------------------------------------------------------|
|------------------------------------------------------------------------|
|------------------------------------------------------------------------|
|-8-7---------7----------------------------------------------------------|
|-------0-10----10----0--0-0-0--0-0-0-0---8-7-5-7~-5-3-0--0-0-0--0-0-0-0-|
        *                **************                   **************

--------------------------------------------------------------|
--------------------------------------------------------------|
-----------------------------------------------2--2-2-6--6-6--|
-----------------------------------------------2--2-2-6--6-6--|
-8-7-------7-----------------------------------0--0-0-4--4-4--|
-----0-10~---10-8--8-8-8--8-8-8-8-8-7-5-7~-5-3----------------|
     *


[BRIDGE] x 1

[CHORUS] x 4

[CHORUS SOLO] x 1

[BRIDGE 2]:


|------------------------------------------------------------------------------------|
|------------------------------------------------------------------------------------|
|------------------------------------------------------------------------------------|
|------------------------------------------------------------------------------------|
|------------------------------------------------------------------------------------|
|-0-0-0-0-0-0-0-0-12-0-0-0-0-0-0-0-0-0-0-0-0-0-0-0-0-0-11-0-0-0-0-0-0-0-0-5--5-5-5---|
 ****************    ***************   ***************    ***************

|-------------------------------------------------------------------|
|-------------------------------------------------------------------|
|-------------------------------------------------------------------|
|-------------------------------------------------------------------|
|-------------------------------------------------------------------|
|-0-0-0-0-0-0-0-0-12-0-12-0--0-0-0-0-0-0-0-0-0-0--0-0-0-0-0-0-0-0-0-|
  ***************    *    ******************   ********************

--------------------------------------|
--------------------------------------|
--------------------------------------|  {There are some variations here in the end.
--------------------------------------|   Listen to the song for more precise Bridge}
--------------------------------------|
-11-0-11-0--0-0-0-0-0-0-0-0-5--5-5-5--|
    *    ******************


|----------------------------------|
|----------------------------------|
|-----------------------5----------|
|----------0------------5----------|
|----------0------------3----------|
|-77-66-55-0---77-66-55-------0-0--|
  ********     ********       ***

[INTRO] x 2

[CHORUS] x 4

[CHORUS SOLO] x 1

=[.THE.END.]=

{CREDITS}

Me and my ears
scottpearce84 - For some tips 'n Tricks
Tap to rate this tab
 
# A B C D E F G H I J K L M N O P Q R S T U V W X Y Z