Song name
# A B C D E F G H I J K L M N O P Q R S T U V W X Y Z

Raven Black Night - Ancient Mist tab

ANCIENT MIST - Raven Black Night

Their site:
http://www.geocities.com/ravenblacknightmusic/raven.html
They aren't a huge band, so don't have an astoundingly detailed site.

My email, should there be any problems:
adqe2all@yahoo.com.au

A pretty fun song from a good Aussie band! Kind of upbeat old school doom metal/hard rock
A great jamming riff for when you're sitting with your mates and want something cool to 
and shred insanely to

Anyway, down to business

Standard tuning (EADGBe)

KEY TO TAB SCRIPT:
|  /   slide up
|  \   slide down
|  h   hammer-on
|  p   pull-off
|  ~   vibrato
|  +   harmonic
|  x   Mute note
| 0x   'Crunch' the note (hold finger on fret, do not press down)
| (2)  ghost/optional note


INTRO
e|------------------------|
B|------------------------|
G|------------------------|
D|------------------------|
A|-----4---3h4p3-3--1-----|
E|-3-3---3----------------|

Play the intro until the Black Knight starts growling, then play this:

e|------------------------------------------------------------|
B|------------------------------------------------------------|
G|------------------------------------------------------------|
D|------------------------------------------------------------|
A|-2-2----5---2-2----7---2-2----5-----------------------------|
E|-0-0-0x-3---0-0-0x-5---0-0-0x-3--5h6p5-5-3------------------|

Then repeat all these patterns until this solo riff:

e|------------------------------------------------------------|
B|------------------------------------------------------------|
G|------------------------------------------------------------|
D|-7--7--10-10-5--5--8--8-------------------------------------|
A|-5--5--8--8--3--3--6--6-------------------------------------|
E|------------------------------------------------------------|

There is a crazy shred solo here, it goes for ages then theres a bass solo
and a final singing bit (still this riff though), then the riff fades out...

Ok thats it for Ancient Mist, there'll be more Raven to come though as work progresses 
Gothic Black and Blood On My Wings

Have fun!!
Tap to rate this tab
 
# A B C D E F G H I J K L M N O P Q R S T U V W X Y Z