Song name
# A B C D E F G H I J K L M N O P Q R S T U V W X Y Z

Raven - Seek And Destroy tab

This is from what I'm hearing as I'm listening to the track.

I think it's pretty obvious where the palm mutes are so I'm not going to include them

120 BPM
Standard Tuning

From the "All for One" album released in 1983

() means hold the chord
* means played so fast it's barely audible

Intro

(barely audible mini pick slide at 0:03)

        [Riff One]          x8
|----------------------------|
|----------------------------|
|o---5---55*------5---5-7---o|
|----5---55*------5---5-7----|
|o--0---0-----0-0---0-------o|
|----------------------------|


fill 1       Riff 2 x4
|------||-----------|
|------||-----------|
|------||o---------o|
|------||-----------|
|-\--2-||o---------o|
|-\3~0-||--0-0-0-0--|

[divebomb fill] w/:


 Riff 3-Verse  x10
|----------------|
|----------------|
|----------------|
|-whole note rest|
|----------------|
|----------------|
(remember the tempo and count)

     Riff 4
|-----------------|
|-----------------|
|-----------------|
|-----------------|
|-2-2-2-2-2-2-2-2-|
|-0-0-0-0-0-0-0-0-|


         [Pre-Chorus-Riff 5]    x4
|---------------------------------|
|---------------------------------|
|o-------------------------------o|
|--------------------------77*----|
|o-2-2-2-2-2-2-2-2-2-2-2-2-55*-7-o|
|--0-0-0-0-0-0-0-0-0-0-0-0-----5--|


Repeat Riff 1 4x (Chorus)

Repeat Riff 3

(Another Divebomb)

Repeat Riff 5

Repeat Riff 1 4x


 Riff 6: the 1st, 2nd, and 3rd time
|-----------------------------|
|-----------------------------|
|o---9---99*-------9---9-11--o|
|----9---99*-------9---9-11---|
|o-99---9-------9-9---9------o|
|-----------------------------|

on the 4th time:
|------------------|
|------------------|
|------------------|
|-9------(9)-------|
|-7------(7)-------|
|------------------|


I'm not going to tab the solo. Do what other bands do when they cover songs with solos: 
make a new one up or improvise it right on the spot. To get ya started, use the A minor 
scale.

I'm pretty sure the bass plays Riff 1 behind the solo.


    Riff after solo (heavily palm muted)

x8
|-----------------------------------|
|----9-10--9----9-10--9-------------|
|o-11----11-9-11----11-9-11-12-11~-o|
|-----------------------------------|
|o---------------------------------o|
|-----------------------------------|

2nd guitar comes in on the 5th time:
|----------------------------------------------|**
|----------------------------------------------|
|----------------------------------------------|
|--------------5---(5)--(6)--(7)--(8)-9---(9)--|
|--4----(4)----3---(3)--(4)--(5)--(6)-7---(7)--|
|--2----(2)------------------------------------|
**chords are actually implied by the bass guitar on this part (and in the background of 
solo) but i'll throw this in there because it sounds nice guitar.


Repeat Riff 1 x4

Repeat Riff 3

Repeat Riff 5

Repeat Riff 1 x4

End with riff 6 x4
Tap to rate this tab
# A B C D E F G H I J K L M N O P Q R S T U V W X Y Z