Song name
# A B C D E F G H I J K L M N O P Q R S T U V W X Y Z

Raven - On And On tab

Do It 2 Times


|0-3-5-----------3---1-1---------5-|
|2-5-7---3-2---3-1-----3-2-------7-|
|--------5-5---5---------5---7-7-7-|     --------- THIS IS THE INTRO
|----------------------------8-7---| 
|----------------------------7-7---|
|----------------------------------|

MINI SOLO

|--------------------------------------------------------------|
|--------------------------------------------------------------|
|------------------------b-------------------------------------|
|------------------------14------------------------------------|
|-13-12--13-15--13-12--13-----13-12--13-15--13-12--13-------b--|
|-----------------------------------------------------12----15-|


VERSE

|-----------------|
|---7-7-7--7------|
|-5-7-7-7--7-7-5-7|  ------- Repeat This 3 Times
|-5----------7-5-7|
|-----------------|
|-----------------|
Can't take the pace, so it gets me riled
First you say "no", then you drive me wild
I ain't gonna take it anymore

PRE-CHORUS

|------0----1------|
|-3----2----3----5-|
|-5--------------7-|
|------------------|
|------------------|
|------------------|
Bolt the windows, lock your door
You're gonna see what I got in store
You're gonna get what's comin' to you right now

CHORUS
 
        PM--    PM-    PM--
|-0-3-5-0000----000--1-0001-1--------|
|-2-5-7-----3-2----3-3------3-2------|
|-----------5-5----5----------5--7-7-|
|--------------------------------8-7-|
|--------------------------------7-7-|
|------------------------------------|
It goes on and on and on and on and on
Won't take your foolin' around
It goes on and on and on and on and on

SOLO (I COULDN'T GET IT)



The Order Goes Like This

INTRO
MINI-SOLO
VERSE
PRE-CHORUS
CHORUS
VERSE
PRE-CHORUS
CHORUS
SOLO
CHORUS
"TIME AFTER TIME..."
PRE-CHORUS
INTRO
CHORUS
MINI-SOLO
Tap to rate this tab
# A B C D E F G H I J K L M N O P Q R S T U V W X Y Z