Song name
# A B C D E F G H I J K L M N O P Q R S T U V W X Y Z

Raveonettes - Dead Sound Acoustic tab

A second guitar play this on the chorus 
e|--------------------------------------|
B|----7----------2----------------------| 
G|----8-----1----3----1-----------------| 
D|----9-----2----4----2-----------------| 
A|----------2---------2-----------------| 
E|--------------------------------------|

This is the solo

e|--------------------------------------------| 
B|--2h-4-4-4-2-4-4-2-4-4-2-4-2-4-2-4-5-7-5----| 
G|--------------------------------------------| 
D|--------------------------------------------| 
A|--------------------------------------------| 
E|--------------------------------------------| 

e|-----------------------------------2--------| 
B|--4-4-4-2-4-4-2-4-2-4-2-2-4-4~-2-----2-3----| 
G|---------------------------------3-----3----| 
D|--------------------------------------------| 
A|--------------------------------------------|
E|--------------------------------------------| 
Tap to rate this tab
# A B C D E F G H I J K L M N O P Q R S T U V W X Y Z