Song name
# A B C D E F G H I J K L M N O P Q R S T U V W X Y Z

Raveonettes - Boys Who Rape Should All Be Destroyed tab

Demo from their upcoming album "In An Out Of Control". Complaints ---> 
felixkryger@hotmail.com. Enjoy.

Band/Artist: The Raveonettes
Genre: Garagerock
Album: In And Out Of Control (2009)
Song: Boys Who Rape (Should All Be Destroyed)
Tuning: Standard


INTRO: C#m

  E
Boys who (boys who)
  C#m
Rape should (rape should)
  A
All be (all be)
  B
Destroyed (x2)

  E
Three to one, girl
  C#m
How can you win?
  A
One horrid night
  B
You hope it is a dream
  E
They rip you to shreds
  C#m
Make you feel useless
  A
You'll never forget
  B
Those fuckers stay in your head

  E
Boys who (boys who)
  C#m
Rape should (rape should)
  A
All be (all be)
  B
Destroyed (x2)

  E
They rip you to shreds
  C#m
Make you feel useless
  A
You'll never forget
  B
Those fuckers stay in your head

BRIDGE: C#m

SOLO:
E----16----16----16-------------------------------------------------------------------------------|
B14~----14----14----14--12-----14----14----14-----------9---9---9-------5-5-5-5-5-4-4-----4-4-----|
G--------------------------12~----12----12----12--9--8~---8---8---8--6----------------6-6---------|
D---------------------------------------------------------------------------------------------6--4|
A-------------------------------------------------------------------------------------------------|
E-------------------------------------------------------------------------------------------------|

  E
Boys who (boys who)
  C#m
Rape should (rape should)
  A
All be (all be)
  B
Destroyed (x6)

OUTRO: C#m

E-----------       ------|
B--------9--       ---9--|
G--8-9-8----(x15)  -8----|
D-----------       ------|
A-----------       ------|
E-----------       ------|
Tap to rate this tab
# A B C D E F G H I J K L M N O P Q R S T U V W X Y Z