Song name
# A B C D E F G H I J K L M N O P Q R S T U V W X Y Z

Raveonettes - Blackwhite tab

-------------------------------------------------------------------------------
			     Black/White- the Raveonettes
-------------------------------------------------------------------------------
Tabbed by: Awesomeperson1
Tuning: Standard
Difficulty: Novice

	I decided to Tab this song cuz I couldnt find it anywhere and it has real cool guitar 
the end of each verse. I hope it helps and you should listen to the song to get a feel 
the rhythm. Sorry I couldnt put the timing in the tab.
                This is my first tab so plez comment!

Play this riff after the yeah yeah yeah that comes at the end of the verses. There is a 
part that goes throughout the whole song, but I didnt tab it.
e|----------------------------------------------------------------|
B|-12-12---9-------------------------12--12--9--------------------|
G|------------11---8--6------4/------------------11----13---------|
D|----------------------8-66--------------------------------------|
A|----------------------------------------------------------------|
E|----------------------------------------------------------------|

e|---------------------------------------------------------------------------|
B|---12-12--9----------------------------------------------------------------|
G|-------------11---8---6----------------------------------------------------|
D|------------------------8--66----4-----------------------------------------|
A|--------------------------------------6--4-4/5/9-----7\5\3-2--0/11---------|
E|---------------------------------------------------------------------------|

This part comes later, and is mixed up with some reverb and distortion.
e|----------------------------------------------------------------------------------|
B|-(12)-12--12--9-----------~--9~7-9----(12)-12-12--9-------------------------------|
G|-----------------11-13-11---------------------------11-8-11--8--------------------|
D|-----------------------------------------------------------------11--8--64-64-----|
A|-----------------------------------------------------------------------------6----|
E|----------------------------------------------------------------------------------|

e|---------------------------------------------------------------------------|
B|-(12)--12--12--9-----------------------------------------------------------|
G|------------------11--11-8--11---------------------------------------------|
D|--------------------------------11--8-6-4----------------------------------|
A|-------------------------------------------64--4/5/9--7\5\3--2-0/9\7-------|
E|---------------------------------------------------------------------------|

e|---------------------------------12-9-7----7----------------------------|
B|----1212-----9---------------------------9---7--------------------------|
G|-11---------8--------11-13-11--------------------11-13--11--13-13-------|
D|------------------------------------------------------------------------|
A|------------------------------------------------------------------------|
E|------------------------------------------------------------------------|
Tremolo picking- End on nine and let ring- just follow the song to get the exact amount, 
dont have to count all these.
e|---------------------------------------------------------------------------|
B|--/14141414141414141414----------99999999999999999\7-9\7-9-----------------|
G|---------------------------------------------------------------------------|
D|---------------------------------------------------------------------------|
A|---------------------------------------------------------------------------|
E|---------------------------------------------------------------------------|

Note- the part in red Im not quite sure about but its really close. It sounds high and 
by kinda fast.
			THE RAVEONETTES ROCK!!!
Tap to rate this tab
# A B C D E F G H I J K L M N O P Q R S T U V W X Y Z