Song name
# A B C D E F G H I J K L M N O P Q R S T U V W X Y Z

Raveonettes - Downtown tab

DOWNTOWN: Eb TUNING

INTRO AND MAIN RIFF:

 Eb |-------|----------ONE-OCTAVE-UP->|-------9----9-10-9----------------|
 Bb |-------|-------------------------|-10-12---12--------12-10-9--------|
 Gb |-----6-|---6-7-6-----------------|----------------------------------|
 Db |-7-9---|-9-------9-7-6-----------|----------------------------------|
 Ab |-------|-------------------------|----------------------------------|
 Eb |-------|-------------------------|----------------------------------|

CHORUS: A D A/G# (47XXXX) "All the boys, all the boys have gone downtown"

  Eb |--------------------------------|-------9----9-10-9----------------|
  Bb |--------------------------------|-10-12---12--------12-10-9--------|
  Gb |--------------------------------|----------------------------------| 
  Db |-----7--------------------------|----------------------------------|
  Ab |--7--5--7-----------------------|----------------------------------|
  Eb |--5-----4-----------------------|----------------------------------|
        A  D A/G# all 5ths


VERSE:  A D E | F# D E |: x2 "My street is dying, oo-ooh.."
Tap to rate this tab
# A B C D E F G H I J K L M N O P Q R S T U V W X Y Z