Song name
# A B C D E F G H I J K L M N O P Q R S T U V W X Y Z

Raveonettes - The Enemy chords

Highlighted       Show chord diagrams
one of my faves from "Observator"

B               E             B             E
Staring at the picture of someone I know I love
B           G#m   F#          E
  We had to part, now you're gone
B                E                B                    E
Cannot sleep at night I toss and turn for the world to see
B               G#m  F#     E
  We're killing time with myself


F#              E
you are always there to remind me
F#                   E
your face if you're never around me
F#              E
you are always there to remind me
F#               E
you make me feel loved
            B  F#
I'm the enemy
            B  F#
I'm the enemy
(riff at the end of each line of the chorus)
E||-------------------------|
B||-------9-------9----7----|
G||-------------------------|
D||--9---------9------------|
A||-------------------------|
E||-------------------------|


solo: B F#
E||------------------------|-----------------------||
B||---------------------7--|-(7)-7-----------------||
G||--8----8----6--8--6-----|--------8--8--6--6--8--||
D||------------------------|-----------------------||
A||------------------------|-----------------------||
E||------------------------|-----------------------||

B               E                   B               E
Wishing for the days that we first met and we moved out
B           G#m  F#        E   
 To places where we could die
B           G#m  F#        E
 To places where we could die


F#              E
you are always there to remind me
F#                   E
your face if you're never around me
F#              E
you are always there to remind me
F#               E
you make me feel loved
            B  F#
I'm the enemy
            B  F#
I'm the enemy

then goes solo and chorus 'till the end
Tap to rate this tab
# A B C D E F G H I J K L M N O P Q R S T U V W X Y Z