Song name
# A B C D E F G H I J K L M N O P Q R S T U V W X Y Z

Raveonettes - Curse The Night tab

-------------------------------------------------------------------------------
                             CURSE THE NIGHT - Raveonettes
-------------------------------------------------------------------------------
Tabbed by: WolfgangAJ
E-mail:

Tuning: Standard
Capo on 1st fret

I think this sounds close, my first tab though, so let's see some 
suggestions/corrections in the comments section. Thanks!

Intro/Verse:
Relative to the capo

e|--------2--------2----2-----------------2-------2-----2--------------------|
B|---------------------------------------------------------------------------|
G|----------2--------------------------------2-------------------------------|
D|--0-0-----0--0-----0-------------0-0------0--0----0------------------------|
A|---------------------------------------------------------------------------|
E|---------------------------------------------------------------------------|

e|--------5--------5-------5-------------5--------5-------5------------------|
B|---------------------------------------------------------------------------|
G|---------------------------------------------------------------------------|
D|--4-4-----4-4-------4------------4-4------4-4-------4----------------------|
A|---------------------------------------------------------------------------|
E|---------------------------------------------------------------------------|

e|---------------------------------------------------------------------------|
B|---------------------------------------------------------------------------|
G|-----------------------------------------------4-4-4---2-2-2---------------|
D|---------------------------------------------------------------------------|
A|---------------------------------------------------------------------------|
E|---------------------------------------------------------------------------|

Chorus:
D formation to Bm, again, relative to the capo

          D             Bm

e|--------2-------------2----------------------------------------------------|
B|--------3-------------3----------------------------------------------------|
G|--------2-------------4----------------------------------------------------|
D|--------0-------------4----------------------------------------------------|
A|----------------------2----------------------------------------------------|
E|---------------------------------------------------------------------------|
Tap to rate this tab
 
# A B C D E F G H I J K L M N O P Q R S T U V W X Y Z