Song name
# A B C D E F G H I J K L M N O P Q R S T U V W X Y Z

Ray Charles - I Got A Woman tab

Help us improve GuitareTab! Take a short survey!
This is the solo played by the Trumpets. Combined with the accurate chord tab someone 
made on this site, you could make this song into a guitar song quite easily and nicely.
Hope this will be my first tab that will be accepted!
If you have any suggestions or questions about this tab you can send me a mail at 
j.passier@live.nl

Standard Tuning
v=vibrato

e]-----------|---------------8----8------|-------8-----8--8--8--7----|
B]---8-10-10-|-10-10------10---10--10-8--|---8-10-10-10-10-10-10-10-9|
G]--9--------|-------11-9---------------9|-9-------------------------|
D]-----------|---------------------------|---------------------------|
A]-----------|---------------------------|---------------------------|
E]-----------|---------------------------|---------------------------|

e]----8v-8v-8v-8v--8--8--10-8-----8--8--8----------------------------------|
B]-10------------10-10-10----10-10-10-10-10---8-10-10-8-7-6-5-4-3-1v-------|
G]------------------------------------------9----------9-8-7-6-5-4--2------|
D]-------------------------------------------------------------------------|
A]-------------------------------------------------------------------------|
E]-------------------------------------------------------------------------|

Good Luck and enjoy playing!
Related for I Got A Woman tab