Song name
# A B C D E F G H I J K L M N O P Q R S T U V W X Y Z

Ray Charles - Shake A Tail Feather tab

-------------------------------------------------------------------------------
                             SHAKE A TAIL FEATHER - ray Charles
-------------------------------------------------------------------------------
Tabbed by:Skellyton465
Email:suiciderraawwrr2@hotmail.co.uk
looked around for a decent intro tab but couldn't find one so wrote one out

Tuning: Standard.
               |-3--|                |--4---|
e|---------------------------------------------------------------------------|
B|---------------------------------------------------------------------------|
G|-2-5-2-5-6-7---------4---4-------------------------------------------------|
D|-x-x-x-x-x-x-----------5---3-------------3-----3---------7-7777------------|
A|-0-3-0-3-4-5-0h4h5\----------5-3-5---3-5---3-0---5-3-5-3-------------------|
E|---------------------3-3-3---------3---------------------5-5555------------|

************************************

| /   slide up
| \   slide down
| h   hammer-on
| p   pull-off
| ~   vibrato
| +   harmonic
| x   Mute note
| b   Bend
| pb  Pre-bend
| br  Bend release
| pbr Pre-bend release
| brb Bend release bend

************************************
Tap to rate this tab
 
# A B C D E F G H I J K L M N O P Q R S T U V W X Y Z