Song name
# A B C D E F G H I J K L M N O P Q R S T U V W X Y Z

Ray Charles - Georgia On My Mind tab

Georgia on my mind - Ray Charles
2/4 (swung)
G major

Feel free to use this song but give credit to me - an email saying where you have used it
would be good, thanks.

Any questions: robertcox999@hotmail.com

The recording of this song has many instruments, in particular the strings, adding extra 
notes that would be near impossible to play on the guitar. This is a transcription to 
make it possible to play on guitar but is by no means a simplified version.

Here are the trickier chords in the song (Iíve tried to include different arrangements 
for some of them - some are easier to play, some sound nice as a variation):

 | Dm(add6)    |  Eaug   |      A7add2     |  C#dim  |
e|-------------|---------|---0---------12--|---------|
B|----6----0---|--1-(0)--|---0----5----12--|----5----|
G|----4----2---|--1------|---0----4----12--|----3----|
D|----7-or-3---|--2------|---2-or-5-or-11--|----5----|
A|----5----5---|--2------|---0----0----0---|----4----|
E|-------------|--0------|-----------------|---------|

 |  G/d  | G/b | C#dim7(b5) | G7(#9)| Cmaj7/e |
e|---3---|--3--|------------|---6---|----0----|
B|---3---|--0--|-----5------|---6---|----0----|
G|---4---|--0--|-----4------|---4---|----0----|
D|---5---|--0--|-----5------|---3---|----2----|
A|---5---|--2--|-----4------|---5---|----3----|
E|-------|-----|------------|---3---|----0----|

 | Cm/eb | Bm/f#  | B7/f#  |  A7/e*|  Em7* |
e|-------|---2----|---2----|---0---|---0---|
B|---4---|---3----|---0----|---2---|---0---|
G|---5---|---4----|---2----|---0---|---0---|
D|---5---|---4----|---1----|---2---|---2---|
A|---6---|---x----|---x----|---4---|---5---|
E|-------|---2----|---2----|---0---|---0---|


 |   F7add2   |   E7add2   |   Daug    |
e|--------8---|---2----7---|--2----10--|
B|---1----8---|---0----7---|--3----11--|
G|---0----8---|---1----7---|--3----11--|
D|---1-or-7---|---0-or-6---|--0-or-10--|
A|---x----8---|---2----7---|-------xx--|
E|---1----x---|---0----0---|-------10--|



The number below the chord denotes the number of beats/strums for that chord.


Intro:

G   Bm/f#   Em   Cm/eb  C#dim   G/d   A7add2    D7
2     2     2      2      2      2      2       2


Verse:

G     B7/f#   Em   Dm(add6)
4      4      2      2

C    C#dim   G/d   Eaug -(E)  A7add2   D7
2      2      2     1     1     2      2

[F7add2  E7add2   A7add2    Daug] repeat into verse again
[2          2       2         2 ]   using these chords


Second time round, use these chords to go into the bridge.

G     Eb7   G     B7
2     2     2     2



1st Bridge:


Em         Cmaj7/e          A7/e*        Cmaj7/e
2             2              2             2

Em         Cmaj7/e          Em7*           A7
2             2              2             2

Em         Cmaj7/e          Em    G/d  C#dim7(b5) - A7add2
2             2              1     1       1         1

Bm           Bb7            A7            D7
2             2              2             2




2nd Bridge:


Em          Am           Em            Bb7
2           2            2             2

Em          Am           Em            A7
2           2            2             2

Em          Am           Em    G/d  C#dim7(b5) - A7add2
2           2            1     1       1         1

Bm          Bb7          A7            D7
2           2            2             2





Verse / End:

G      B7/f#   Em   Dm(add6)
4       4      2     2

C   C#dim  G/d   Eaug - E  A7add2   D7
2    2      2     1     1    2      2

F7add2    E7add2    A7add2    Daug   [same chords as section used]
  4         4         4        4     [    to repeat the verse    ]


Little ending riff bit:

G     G/b    C    C#dim   G/d
1      1     1      1      1

Ab7   G7        G7(#9)
Ĺ      1        to end
Tap to rate this tab
 
# A B C D E F G H I J K L M N O P Q R S T U V W X Y Z