Song name
# A B C D E F G H I J K L M N O P Q R S T U V W X Y Z

Ray Charles - Whatd I Say tab

this is my first tab but im 100 % sure its right.

                          ray charles
                          what'd i say (into only )
E]---------------------------------------------------------------------------|
B]---------------------------------------------------------------------------|
G]-------------------------------------------0--2------------0--2------------|
D]-----------0--2----------0-2---X2-------2------------2--2------------------|
A]-------2-------------2-2-------------0------------0------------------------|
E]----0-------------0--------------------------------------------------------|

E]---------------------------------------------------------------------------|
B]--------------------------------------------------0------------------------|
G]---------------------------------------------2-------------------0--2------|
D]---------0--2-----------0---2---------4------------------2-2---------------|
A]------2-------------2-2---------2---------------------0--------------------|
E]--0--------------0---------------------------------------------------------|
                                          B7
                                  turnaround ( i strum it X6)
E]---------------------------------2-----------------------------------------|
B]---------------------------------0-----------------------------------------|
G]---------------------------------2-----------------------------------------|
D]-------------0------2------------1-----------------------------------------|
A]--------2------------------------2-----------------------------------------|
E]-----0---------------------------------------------------------------------|

thats it , really easy , have fun with it, i add a hammer in there in a few places.
-tabbed by: paul nolan
Tap to rate this tab
# A B C D E F G H I J K L M N O P Q R S T U V W X Y Z