Guitaretab - guitar tabs
Song name
# A B C D E F G H I J K L M N O P Q R S T U V W X Y Z

Ray Lamontagne - How Come tab

Guitar 1:   C   Bb   F
            F   Bb   C

Guitar 2:   Capo 3rd fret

|-----5--------5-3---3--2----|
|-----5--------5-3---3--3----|
|-4/6------4/6-------4--2----|
|------------------0----0----|
|-0--------0-----------------|
|----------------------------|
[ Tab from: http://www.guitaretab.com/r/ray-lamontagne/178744.html ]
|-----5---5------5-3---3--2----|
|-----5---5------5-3---3--3----|
|-4/6---6----4/6-------4--2----|
|--------------------0----0----|
|-0----------0-----------------|
|------------------------------|

|-----5---5---7-----5-------------3--2----|
|-----5---5-----5------5----------3--3----|
|-4/6---6---6-----6------6--------4--2----|
|-------------------------------0----0----|
|-0---------------------------------------|
|-----------------------------------------|
Related for How Come tab
Advertisement will be closed in 10 seconds