Ray Lamontagne - You Are The Best Thing Live tab

tabbed by VinzAll
email vinceall@hotmail.com

Ok, i know I'm missing most of it and the little I got is far from perfect but still, I 
it's worth collaborating on this beautiful version. Please correct me !!
U'll find these videos to help :
http://www.youtube.com/watch?v=phCw_khYmlw
http://www.youtube.com/watch?v=rXSB1WhIyXA
http://www.youtube.com/watch?v=UYDJdHPSF60
http://www.youtube.com/watch?v=hmKKN0tgQYE

According to the video he's sometimes going for the G7 on 320001
but generally according to the video he plays with weird positions


---3----3----3----3-----------------5----3------------------------------|
---3----3----3----3-----------------5----3------------------------------|
---4----4----4----4-----------------5----4------------------------------|
---5----3----3----4-----------------3----3------------------------------|
---5----5----4----3-----------------3----5------------------------------|
---3----3----3----3-----------------5----3------------------------------|

       G        G7     Gb57    GM11                              Am       G7

---3----4----5----3---------------------------------------------------|
---3----4----5----3---------------------------------------------------|
---4----5----5----4---------------------------------------------------|
---5----6----7----3---------------------------------------------------|
---5----6----7----5---------------------------------------------------|
---3----4----5----3---------------------------------------------------|

       G        Ab      Am      G7
Tap to rate this tab
 
# A B C D E F G H I J K L M N O P Q R S T U V W X Y Z