Song name
# A B C D E F G H I J K L M N O P Q R S T U V W X Y Z

Ray Lamontagne - Are We Really Through tab

I have never done this before, sorry if it sucks.
Capo 2nd Fret

(Intro same as below mostly)

Is that sun ever gonna break/Break on through the clouds/Shine down in all its glory
e|----------------------------------------------------------------------------|
B|-------2---2----3-2---2---2----3-2---2---2---3-2-----1-1--1-----------------|
G|---------2---2----------1---1----------0---0--------------------------------|
D|----------------------------------------------------------------------------|
A|-------0---0----0-0---0---0----0-0---0---0---0-0-----0-0--0-----------------|
E|----------------------------------------------------------------------------|

onto me?/Head upon the ground/'Cause I can't hear the sound/Cept my own sad story
e|----------------------------------------------------------------------------|
B|-------2---2----3-2---2---2----3-2---2---2---3-2-----1-1--1-----------------|
G|---------2---2----------1---1----------0---0--------------------------------|
D|----------------------------------------------------------------------------|
A|-------0---0----0-0---0---0----0-0---0---0---0-0-----0-0--0-----------------|
E|----------------------------------------------------------------------------|


E       D       G            A     E          D              G            A
Get so tired Starin' at the wall/Weight's so heavy And that mountains so tall

E         D                 c    G            A
Is there no one who would catch  me      if I fall?


go back to first verse....repeats in a similar way throughout the song
Tap to rate this tab
 
# A B C D E F G H I J K L M N O P Q R S T U V W X Y Z