Ray Lamontagne - Like Rock And Roll And Radio tab

Artist: Ray Lamontagne
Song: Like Rock and Roll and the Radio
Tabbed by: Ryan Prashad



This tabbed is tabbed the oldschool way, by hand rather than by program. I tried to
represent the strumming pattern but really you use this tab plus the song to get a better
idea of the pattern. The song is played tuned a whole step down. I've also left out the 
sections with the harmonica since they're just the intro. Enjoy.

Intro
-0-0-0-0--0-0-0--0-0-0-0-0--0-0---0-0-0-0-0---0-0-|
-1-1-1-1--1-1-1--1-1-1-1-1--1-1---1-1-1-1-1---1-1-|
-0-0-0-0--0-0-0--0-0-0-0-2--2-2---2-2-2-2-2---2-2-|
-0h2-2-2--2-2-2--2-2-0-2-3--3-3---3-3-3-3-3---3-3-|
-3-3-3-3--3-3-3--3-3-3-3-0--0-0-0-0-0-0-0-0-0-0-0-|
--------------------------------------------------|



Verse
-0--0-0-0--0-0-0--0-0-0-0-0--0-0-0--0-0-0--0-0-0--0-0-|
-1--1-1-1--1-1-1--1-1-1-1-1--1-1-1--1-1-1--1-1-1--1-1-|
-0--0-0-0--0-0-0--0-0-0-0-2--2-2-2--2-2-2--2-2-2--2-2-|
-2--2-2-2--2-2-2--2-2-2-2-3--3-3-3--3-3-3--3-3-3--3-3-|
-3--3-3-3--3-3-3--3-3-3-3-0--0-0-0--0-0-0--0-0-0--0-0-|
------------------------------------------------------|
                                               Are we



Chorus
-0--0-0-0--0-0--1--1-1-1--1-1-1--1-1-|
-1--1-1-1--1-1--1--1-1-1--1-1-1--1-1-|
-0--0-0-0--0-0--0--0-0-0--0-0-0--0-0-|
-2--2-2-2--2-2--0--0-0-0--0-0-0--0-0-|
-3--3-3-3--3-3--2--2-2-2--2-2-2--2-2-|
----------------3--3-3-3--3-3-3--3-3-|
 Strangers      now...      like the


-1--1-1-1--1-1-1--1-1-1--1-1-|
-3--3-3-3--3-3-3--3-3-3--3-3-|
-2--2-2-2--2-2-2--2-2-2--2-2-|
-0--0-0-0--0-0-0--0-0-0--0-0-|
-----------------------------|
-----------------------------|
Ziegfried gal....


-0--0-0-0--0-0--1--1-1-1--1-1-1--1-1-|
-1--1-1-1--1-1--1--1-1-1--1-1-1--1-1-|
-0--0-0-0--0-0--0--0-0-0--0-0-0--0-0-|
-2--2-2-2--2-2--0--0-0-0--0-0-0--0-0-|
-3--3-3-3--3-3--2--2-2-2--2-2-2--2-2-|
----------------3--3-3-3--3-3-3--3-3-|
 Strangers      now...          like


-1--1-1-1--1-1-1--1-1-1--1-1-|
-3--3-3-3--3-3-3--3-3-3--3-3-|
-2--2-2-2--2-2-2--2-2-2--2-2-|
-0--0-0-0--0-0-0--0-0-0--0-0-|
-----------------------------|
-----------------------------|
rock and roll...



Repeat-
Intro
Verse
Chorus



Break-
-1--1-1-1--1-1-1--1-1-1--1-1-0--0-0-0--0-0-0--0-0-0--0-0-|
-3--3-3-3--3-3-3--3-3-3--3-3-1--1-1-1--1-1-1--1-1-1--1-1-|
-2--2-2-2--2-2-2--2-2-2--2-2-2--2-2-2--2-2-2--2-2-2--2-2-|
-0--0-0-0--0-0-0--0-0-0--0-0-2--2-2-2--2-2-2--2-2-2--2-2-|
-----------------------------0--0-0-0--0-0-0--0-0-0--0-0-|
---------------------------------------------------------|
                 All these                    White lies

-1--1-1-1--1-1-1--1-1-1--1-1-1--1-1-1--1-1-1--1-1-1--1-1-|
-1--1-1-1--1-1-1--1-1-1--1-1-3--3-3-3--3-3-3--3-3-3--3-3-|
-0--0-0-0--0-0-0--0-0-0--0-0-2--2-2-2--2-2-2--2-2-2--2-2-|
-0--0-0-0--0-0-0--0-0-0--0-0-0--0-0-0--0-0-0--0-0-0--0-0-|
-2--2-2-2--2-2-2--2-2-2--2-2-----------------------------|
-3--3-3-3--3-3-3--3-3-3--3-3-----------------------------|
                Hanging like flies   on the wall



Repeat-
Intro
Verse
Chorus


End
Tap to rate this tab
 
# A B C D E F G H I J K L M N O P Q R S T U V W X Y Z