Song name
# A B C D E F G H I J K L M N O P Q R S T U V W X Y Z

Ray Lamontagne - Truly Madly Deeply tab

The song is recorded one half-step down in Db. This is in D -- but easier to play in 
standard tuning....

Modified from other's posted tabs....

Chords: All Down Strokes

Key of D

D/A - x04232
Bm - x24432
A* - x07650
G - 320033

SOLO


(0:09)
e|---------------------------------------------------------------|
B|--10~~-------------10----10--12~~------------------------------|
G|-----11-9-11~~------11----------11-9-11~~----------------------|
D|---------------------------------------------------------------|
A|---------------------------------------------------------------|
E|---------------------------------------------------------------|

(0:24)
e|---------------------------------------------------------------|
B|--12------12--14~~---------------------------------------------|
G|------11------------14-12-14~~--14--12--11--12-14-12-11-12~~---|
D|---------------------------------------------------------------|
A|---------------------------------------------------------------|
E|---------------------------------------------------------------|

(0:43)
e|---------------------------------------------------------------|
B|---------------------------------------------------------------|
G|--12--12--12--12-11-9-11~~-------------------------------------|
D|---------------------------------------------------------------|
A|---------------------------------------------------------------|
E|---------------------------------------------------------------|

(0:52)
e|---------------------------------------------------------------|
B|--10~~----10--12~~---------------------------------------------|
G|-----11-----------11-9-11~~------------------------------------|
D|---------------------------------------------------------------|
A|---------------------------------------------------------------|
E|---------------------------------------------------------------|

(1:02)
e|---------------------------------------------------------------|
B|--12------12--14~~---------------------------------------------|
G|------11------------14-12-14~~--14--12--11--12-14-12-11-12~~---|
D|---------------------------------------------------------------|
A|---------------------------------------------------------------|
E|---------------------------------------------------------------|

(1:20)
e|---------------------------------------------------------------|
B|---------------------------------------------------------------|
G|--12--12--12--12-11-9-11~~--9h11--9~~--------------------------|
D|---------------------------------------12--12------------------|
A|---------------------------------------------------------------|
E|---------------------------------------------------------------|
Tap to rate this tab
# A B C D E F G H I J K L M N O P Q R S T U V W X Y Z