Song name
# A B C D E F G H I J K L M N O P Q R S T U V W X Y Z

Ray Lamontagne - How Come tab

-------------------------------------------------------------------------------
			     How Come - Ray Lamontagne
-------------------------------------------------------------------------------
Tabbed by: Zach

Tuning: Standard

Guitar 1 (acoustic): C    Bb    F
                     F    Bb    C

Guitar 2 (electric):

e|-----8---------8--6-------6-----5-|--------8---------8--6-------6-----5-----------|
B|-----8---------8--6-------6-----6-|--------8---------8--6-------6-----6----8b6b8b-|
G|-7/9-9-----6/9-9--7---5/6-7---5-5-|----7/9-9-----6/9-9--7---5/6-7---5-5---5-------|
D|-----10--------10-8-------8-----7-|--------10--------10-8-------8-----7-----------|
A|----------------------------------|-----------------------------------------------|
E|----------------------------------|-----------------------------------------------|

e|-----8------8---10p8---8------8--6----5----------6------8------8--------8--6------6----5-|
B|-----8------8--------9-8------8--6----6----------6------8------8--------8--6------6----6-|
G|-6/9-9--7/9-9----------9--8/9-9--7--5-5------5/6-7--6/9-9--8/9-9----8/9-9--7--5/6-7--5-5-|
D|-----10-----10---------10-----10-8----7----------8------10-----10-------10-8------8----7-|
A|-----------------------------------------------------------------------------------------|
E|-----------------------------------------------------------------------------------------|

e|----------------------------------|
B|--11p8----------------------------|
G|-------10-8---------10-8b---------|
D|------------10----8---------------|
A|---------------10-----------------|
E|----------------------------------|
Tap to rate this tab
# A B C D E F G H I J K L M N O P Q R S T U V W X Y Z