Song name
# A B C D E F G H I J K L M N O P Q R S T U V W X Y Z

Ray Parker Jr - Ghostbusters tab

Spent a few hours on this. Quite easy.

e|-----------------|
B|-----------------|
G|-4-4--------2--2-|
D|-4-4--------2--2-|
A|-2-2--------0----|
E|-----0-2-4-------| 4X

Melody
e|----------------------------|-----------------------------|
B|----------------------------|-----------------------------|
G|-----8---6------------------|-----8---6---------------6---|
D|-9-9---9---7---9-9-9-9-7-9--|-9-9---9---7---9-9-9-9-7---9-|
A|----------------------------|-----------------------------|
E|----------------------------|-----------------------------|
                                Ghostbusters!
e|-----------------|
B|-----------------|
G|-4-4--------2--2-|
D|-4-4--------2--2-|
A|-2-2--------0----|
E|-----0-2-4-------| 8X
If there's something strange 
in your neighborhood 
Who you gonna call? - Ghostbusters! 
If there's something weird 
and it don't look good 
Who you gonna call? - Ghostbusters! 



e|----------------------------|-----------------------------|
B|----------------------------|-----------------------------|
G|-----8---6------------------|-----8---6---------------6---|
D|-9-9---9---7---9-9-9-9-7-9--|-9-9---9---7---9-9-9-9-7---9-|
A|----------------------------|-----------------------------|
E|----------------------------|-----------------------------|
				 I ain't afraid of no ghost



e|----------------------------|-----------------------------|
B|----------------------------|-----------------------------|
G|-----8---6------------------|-----8---6---------------6---|
D|-9-9---9---7---9-9-9-9-7-9--|-9-9---9---7---9-9-9-9-7---9-|
A|----------------------------|-----------------------------|
E|----------------------------|-----------------------------|
				I ain't afraid of no ghost

e|-----------------|
B|-----------------|
G|-4-4--------2--2-|
D|-4-4--------2--2-|
A|-2-2--------0----| 
E|-----0-2-4-------| 3X

E----------------------------|
B|----------------------------|
G|-----8---6------------------|
D|-9-9---9---7---9-9-9-9-7-9--|
A|----------------------------|
E|----------------------------|

e|-----------------|
B|-----------------|
G|-4-4--------2--2-|
D|-4-4--------2--2-|
A|-2-2--------0----| 
E|-----0-2-4-------|8X
If you're seeing things 
running through your head 
Who can you call? - Ghostbusters! 
An invisible man 
sleeping in your bed 
Oh, who can you call? - Ghostbusters


e|----------------------------|-----------------------------|
B|----------------------------|-----------------------------|
G|-----8---6------------------|-----8---6---------------6---|
D|-9-9---9---7---9-9-9-9-7-9--|-9-9---9---7---9-9-9-9-7---9-|
A|----------------------------|-----------------------------|
E|----------------------------|-----------------------------|
				 I ain't afraid of no ghost



e|----------------------------|-----------------------------|
B|----------------------------|-----------------------------|
G|-----8---6------------------|-----8---6---------------6---|
D|-9-9---9---7---9-9-9-9-7-9--|-9-9---9---7---9-9-9-9-7---9-|
A|----------------------------|-----------------------------|
E|----------------------------|-----------------------------|
				             I ain't afraid of no ghost
e|-----------------|
B|-----------------|
G|-4-4--------2--2-|
D|-4-4--------2--2-|
A|-2-2--------0----| 
E|-----0-2-4-------| 3X
Who you gonna call? - Ghostbusters! 

e|-----------------|
B|-----------------|
G|-4-4--------2--2-|
D|-4-4--------2--2-|
A|-2-2--------0----| 
E|-----0-2-4-------|4X
If you're all alone 
pick up the phone 
and call - Ghostbusters! 


e|----------------------------|-----------------------------|
B|----------------------------|-----------------------------|
G|-----8---6------------------|-----8---6---------------6---|
D|-9-9---9---7---9-9-9-9-7-9--|-9-9---9---7---9-9-9-9-7---9-|
A|----------------------------|-----------------------------|
E|----------------------------|-----------------------------|
I ain't afraid of no ghost 





e|----------------------------|-----------------------------|
B|----------------------------|-----------------------------|
G|-----8---6------------------|-----8---6---------------6---|
D|-9-9---9---7---9-9-9-9-7-9--|-9-9---9---7---9-9-9-9-7---9-|
A|----------------------------|-----------------------------|
E|----------------------------|-----------------------------|
				             I ain't afraid of no ghost

e|-----------------|
B|-----------------|
G|-4-4--------2--2-|
D|-4-4--------2--2-|
A|-2-2--------0----| 
E|-----0-2-4-------|6X

Who you gonna call? - Ghostbusters! 
If you've had a dose 
of a freaky ghost 
You'd better call - Ghostbusters! 

e|----------------------------|-----------------------------|
B|----------------------------|-----------------------------|
G|-----8---6------------------|-----8---6---------------6---|
D|-9-9---9---7---9-9-9-9-7-9--|-9-9---9---7---9-9-9-9-7---9-|
A|----------------------------|-----------------------------|
E|----------------------------|-----------------------------|
I ain't afraid of no ghost 


e|----------------------------|-----------------------------|
B|----------------------------|-----------------------------|
G|-----8---6------------------|-----8---6---------------6---|
D|-9-9---9---7---9-9-9-9-7-9--|-9-9---9---7---9-9-9-9-7---9-|
A|----------------------------|-----------------------------|
E|----------------------------|-----------------------------|
				             I ain't afraid of no ghost



e|-----------------|
B|-----------------|
G|-4-4--------2--2-|
D|-4-4--------2--2-|
A|-2-2--------0----| 
E|-----0-2-4-------| (To end)



Don't get caught alone, oh no 
Ghostbusters! 
When it comes through your door 
Unless you just want some more 
I think you better call - Ghostbusters! 
Ow! 

Who you gonna call? - Ghostbusters!


I had to learn this for a school recording! This is 100% correct!
Tap to rate this tab
# A B C D E F G H I J K L M N O P Q R S T U V W X Y Z