Song name
# A B C D E F G H I J K L M N O P Q R S T U V W X Y Z

Ray Parker - Ghostbusters tab

----------------------------------------------------------------------------

Artist:  Ray Parker Jr
Song:    Ghostbusters theme

This is my version of Ghostbusters theme 
suitable for nu-metal drop tunings, enjoy.

----------------------------------------------------------------------------

INTRO
VERSEx4
VERSEx2 (+ MAIN THEME)
VERSEx4
BRIDGE
VERSEx6 (+ FILLS A)
BRIDGE
VERSEx4 (+ FILLS B)
BRIDGE A
VERSEx4 (+ MAIN THEME)
ENDING
BRIDGE
VERSE fade out (+ MAIN THEME)

----------------------------------------------------------------------------

| /  Slide up
| \  Slide down
| h  Hammer-on
| p  Pull-off
| pm Palm mute
| b  Bend on
| ~  Vibrato
| +  Harmonic
| x  Mute note

----------------------------------------------------------------------------


INTRO:


C#|-------|---------------------------------|
G#|-------|---------------------------------|
E |-------|-6-h-7-p-6-h-7-p-6-h-7-p-6-h-7-p-|  x5
B |-------|---------------------------------|
F#|-------|---------------------------------|
B |-5/24\-|---------------------------------|


VERSE:


C#|-------------------------------------------------------------------|
G#|-------------------------------------------------------------------|
E |-------7-----------5-----------x-x-----7-----------5---------------|
B |-------7-----------5-------5---x-x-----7-----------5-------5-------|
F#|---5---5---5---0---3---3---5---x-x-5---5---5---0---3---3---5-------|
B |---------------------------5-------------------------------5---5---|

pm    .       .   .       .   .   . . .       .   .       .       .


MAIN THEME:


C#|-------------------------------------------------------------------|
G#|-----------7-------5-----------------------------------------------|
E |-------7-7-----7-------5-------------------7-7-7-7-5---7-----------|
B |-------------------------------------------------------------------|
F#|-------------------------------------------------------------------|
B |-------------------------------------------------------------------|


C#|-------------------------------------------------------------------|
G#|-----------7-------5-----------------------------------------------|
E |-------7-7-----7-------5-------------------7-7-7-7-5---9---7-------|
B |-------------------------------------------------------------------|
F#|-------------------------------------------------------------------|
B |-------------------------------------------------------------------|


BRIDGE:


C#|-------------------------------------------------------------------|
G#|---6-----------6-----------6-----------6-----------6---------------|
E |---------7-x-x-------7-x-x-------7-x-x-------7-x-x-----7---5-6-7---|  x3
B |-------------------------------------------------------------------|
F#|-------------------------------------------------------------------|
B |-------------------------------------------------------------------|


C#|---5-----------5-----------5-----------5---------------------------|
G#|---6-----------6-----------6-----------6-----------13b15\----------|
E |---------7-x-x-------7-x-x-------7-x-x-------7---------------------|
B |-------------------------------------------------------------------|
F#|-------------------------------------------------------------------|
B |-------------------------------------------------------------------|


FILLS A:


C#|-------------------------------------------------------------------|
G#|------------------------------------------------------------13b15--|
E |---10h11-------------------------------------------------14--------|
B |---------12~------12p10--------------------------------------------|
F#|------------------------12-11-10---8-9-----------------------------|
B |---------------------------------------12~\------------------------|


C#|-------------------------------------------------------------------|
G#|---13p12-------12p10-----------------------------------------------|
E |---------14----------12---10-11------------------------------------|
B |--------------------------------12-10-b-12-------------------------|
F#|-------------------------------------------------------------------|
B |-------------------------------------------------------------------|


C#|-------------------------------------------------------------------|
G#|---13-12-----------------------------------------------------------|
E |---------15p13h15-13/15--13----------------------------------------|
B |-------------------------------------------------------------------|
F#|-------------------------------------------------------------------|
B |-------------------------------------------------------------------|


FILLS B:


C#|-------------------------------------------------------------------|
G#|---15~------\---13p12----------------------------------------------|
E |----------------------14---12----10h11-----------------------------|
B |---------------------------------------12~-------------------------|
F#|-------------------------------------------------------------------|
B |-------------------------------------------------------------------|


C#|-------------------------------------------------------------------|
G#|---7p5-------------------6-----------------------------------------|
E |-------7-6-5-------5-6-7---7~--------------------------------------|
B |-------------8-5h8-------------------------------------------------|
F#|-------------------------------------------------------------------|
B |-------------------------------------------------------------------|


BRIDGE B:

    
C#|-------------------------------------------------------------------|
G#|-------------------------------------------------------------------|
E |-------------------------------------------------------------------|
B |---12--10--------------------------\-----------12------------------|
F#|---12--10--------------------------\-----------12------------------|
B |---12--10--------------------------\-----------12------------------|


C#|-------------------------------------------------------------------|
G#|-------------------------------------------------------------------|
E |-------------------------------------------------------------------|
B |---12--10--------------------------\---------------12--------------|
F#|---12--10--------------------------\---------------12--------------|
B |---12--10--------------------------\---------------12--------------|


C#|-------------------------------------------------------------------|
G#|-------------------------------------------------------------------|
E |-------------------------------------------------------------------|
B |---12--10--------------------------\-----------12------------------|
F#|---12--10--------------------------\-----------12------------------|
B |---12--10--------------------------\-----------12------------------|


C#|-------------------------------------------------------------------|
G#|-------------------------------------------------------------------|
E |-------------------------------------------------------------------|
B |---12--10--------------------------\-------------------------------|
F#|---12--10--------------------------\-------------------------------|
B |---12--10--------------------------\-------------------------------|


ENDING:


C#|-------------------------------------------------------------------|
G#|-------------------------------------------------------------------|
E |-------------------------------------------10------9---------------|
B |---7---7-------------------------------7-----------7-------10------|
F#|---7---7-------------------------------7-----------7---------------|
B |---7---7-------------------------------7-----------7---------------|


C#|-------------------------------------------------------------------|
G#|-------------------------------------------------------0---0-2-----|
E |-------------------------------------------------------0---0-2-----|
B |---7---7-------------------------------7-----------7---------------|
F#|---7---7-------------------------------7-----------7---------------|
B |---7---7-------------------------------7-----------7---------------|


C#|-------------------------------------------------------------------|
G#|-------------------------------------------------------------------|
E |-------------------------------------------10------9---------------|
B |---7---7-------------------------------7-----------7-------10------|
F#|---7---7-------------------------------7-----------7---------------|
B |---7---7-------------------------------7-----------7---------------|

                                                      
C#|---------------------------------------------------12--------------|
G#|-------------------------------------------13--15------15--13b15---|
E |-------------------------------------------------------------------|
B |---7---7-------------------------------7---------------------------|
F#|---7---7-------------------------------7---------------------------|
B |---7---7-------------------------------7---------------------------|




Tap to rate this tab
# A B C D E F G H I J K L M N O P Q R S T U V W X Y Z