Song name
# A B C D E F G H I J K L M N O P Q R S T U V W X Y Z

Ray William Johnson - Zombie Love Song tab

So this is pretty much all the solos/fills. I'm pretty sure it's mostly the main riff 
and then that outro later on. I didn't post the chords because there's another PERFECT 
lesson for the chords on this site (trust me, you'll find it if you LOOK.)
Go easy on me, it's my first tab...

Standard Tuning (Low to high) EADGBe

Main:
e |---------------------10^~~p10~~-10^10^-----------------------------------|
B |-7-10^p7-10^-10^~~~------------------------------------------------------|
G |-------------------------------------------------------------------------|
D |-------------------------------------------------------------------------|
A |-------------------------------------------------------------------------|
E |-------------------------------------------------------------------------|


End solo (switch to neck pickup):
e |----------------------------------------------------------------------------------|
B |-----------------------------10^p8-10^p10-8-10-10^-10^----------------------------|
G |-8-8h10-10~~~---10-12~~12~~-------------------------------------------------------|
D |----------------------------------------------------------------------------------|
A |----------------------------------------------------------------------------------|
E |----------------------------------------------------------------------------------|

e |----------------------------------------------------------------------------------|
B |-------17--15---------12-------------17--15--15-15^12-15-15^~~~-15-12-15~~~~~~~---|
G |-12-14^--1414^p12-15^--15^p12--12-14^--14-14-------------------------------------|
D |------------------------------15--------------------------------------------------|
A |----------------------------------------------------------------------------------|
E |----------------------------------------------------------------------------------|

End solo (after main)
e |----------------------------------------------------------------------------------|
B |-----------------------------10^p8-10^p10-8-10-10^-10^----------------------------|
G |-8-8h10-10~~~---10-12~~12~~-------------------------------------------------------|
D |----------------------------------------------------------------------------------|
A |----------------------------------------------------------------------------------|
E |----------------------------------------------------------------------------------|

e |----------------------------------------------------------------------------------|
B |-------17--15---------12-------------17--15--15-15^12-15-15^~~~-15-12-15~~~~~~~---|
G |-12-14^--1414^p12-15^--15^p12--12-14^--14-14-------------------------------------|
D |------------------------------15--------------------------------------------------|
A |----------------------------------------------------------------------------------|
E |----------------------------------------------------------------------------------|

e |---------------------------------------15^~~15~~-15-13-12-------------------------|
B |-15^-15^~~~~--15-12-15^-15^~~~~--15-12--------------------15-13^-13^--------------|
G |----------------------------------------------------------------------------------|
D |----------------------------------------------------------------------------------|
A |----------------------------------------------------------------------------------|
E |----------------------------------------------------------------------------------|
                             |  x8  |
e |--------------------------|------|------------------------------------------------|
B |--------------------------|---12-|------------------------------------------------|
G |-15~-15~-15~-15~-12-15-12-|-15^--|-12~~~~---7/8-8~~--8-8/10~~~~~------------------|
D |--------------------------|------|--------10--------------------------------------|
A |--------------------------|------|------------------------------------------------|
E |--------------------------|------|------------------------------------------------|

Again, it's my first tab, so it's probably terrible, PLEASE correct me if anything is wrong.
Tap to rate this tab
 
# A B C D E F G H I J K L M N O P Q R S T U V W X Y Z