Song name
# A B C D E F G H I J K L M N O P Q R S T U V W X Y Z

Raymond Scott - Powerhouse tab

Song:Powerhouse
Artist:Raymond Scott(http://raymondscott.com)
Transcribed by:Peter Mowitt

Tuning:Standard

Bassline
G|------------------------------------------|
D|------------------------------------------|
A|---------6-7--9-8-5-6-7--6-7---9-8-5-6-7--|
E|--------8----9----------8----9------------| (Repeat)


Intro Melody(Guitar) enter on 4th time
e|----------------------------|
B|----------------------------|
G|---12-11----10--8-----------|
D|-10-------10--10---10-12----|
A|----------------------------|(x3)
E|----------------------------|

e|-------------------------|
B|-------------------------|
G|----12p11p10\8-----8-----|
D|---------------10----10--|
A|-------------------------|
E|-------------------------|


| /  slide up
| \  slide down
| h  hammer-on
| p  pull-off
| ~  vibrato
| +  harmonic
| x  Mute note
===============================================================================
...more will added.
Tap to rate this tab
# A B C D E F G H I J K L M N O P Q R S T U V W X Y Z