Song name
# A B C D E F G H I J K L M N O P Q R S T U V W X Y Z

Razar - Stamp Out Disco tab

X= mute the strings with the note(7) in all the verses.
                                 (5)
                                 (5) 
Intro:
E|---------------------------------------------------------------------------| 
B|---------------------------------------------------------------------------| 
G|---------------------------------------------------------------------------| 
D|--------1-------1-------1-------1-------1-------1-------1-------1----------|
A|--0031-3--0031-3--0031-3--0031-3--0031-3--0031-3--0031-3--0031-3-----------| 
E|---------------------------------------------------------------------------| 


Verse: 1 
E|---------------------------------------------------------------------------| 
B|---------------------------------------------------------------------------| 
G|--------------------------------------------------------55555-88888--------| 
D|---7XXXXXXXX-77777-7XXXXXXXXX-77777-7XXXXXXXXX-77777----55555-88888--------|(X2) 
A|---7XXXXXXXX-77777-7XXXXXXXXX-77777-7XXXXXXXXX-77777----33333-66666--------| 
E|---5XXXXXXXX-55555-5XXXXXXXXX-55555-5XXXXXXXXX-55555-----------------------| 


Chorus:
E|---------------------------------------------------------------------------| 
B|---------------------------------------------------------------------------| 
G|---------------------------------------------------------------------------| 
D|-3333333-66666666-88888888-111111111111111111------------------------------|(x2) 
A|-3333333-66666666-88888888-111111111111111111------------------------------| 
E|-1111111-44444444-66666666--9-9-9-9-9-9-9-9-9------------------------------|


E|---------------------------------------------------------------------------| 
B|---------------------------------------------------------------------------| 
G|---------------------------------------------------------------------------| 
D|--------1-------1-------1-------1------------------------------------------|
A|--0031-3--0031-3--0031-3--0031-3-------------------------------------------| 
E|---------------------------------------------------------------------------| 

Verse: 2 
E|---------------------------------------------------------------------------| 
B|---------------------------------------------------------------------------| 
G|--------------------------------------------------------55555-88888--------| 
D|---7XXXXXXXX-77777-7XXXXXXXXX-77777-7XXXXXXXXX-77777----55555-88888--------|(X2) 
A|---7XXXXXXXX-77777-7XXXXXXXXX-77777-7XXXXXXXXX-77777----33333-66666--------| 
E|---5XXXXXXXX-55555-5XXXXXXXXX-55555-5XXXXXXXXX-55555-----------------------| 


Chorus:
E|---------------------------------------------------------------------------| 
B|---------------------------------------------------------------------------| 
G|---------------------------------------------------------------------------| 
D|-3333333-66666666-88888888-111111111111111111------------------------------|(x2) 
A|-3333333-66666666-88888888-111111111111111111------------------------------| 
E|-1111111-44444444-66666666--9-9-9-9-9-9-9-9-9------------------------------|


E|---------------------------------------------------------------------------| 
B|---------------------------------------------------------------------------| 
G|---------------------------------------------------------------------------| 
D|--------1-------1-------1-------1------------------------------------------|
A|--0031-3--0031-3--0031-3--0031-3-------------------------------------------| 
E|---------------------------------------------------------------------------|

Bridge:
E|---------------------------------------------------------------------------| 
B|---------------------------------------------------------------------------| 
G|--555555-88888888-555555-88888888-555555-88888888--------------------------| 
D|--555555-88888888-555555-88888888-555555-88888888--------------------------|
A|--333333-66666666-333333-66666666-333333-66666666--------------------------| 
E|---------------------------------------------------------------------------| 


E|---------------------------------------------------------------------------| 
B|---------------------------------------------------------------------------| 
G|--555555-88888888-555555-88888888------------------------------------------| 
D|--555555-88888888-555555-88888888------------------------------------------|
A|--333333-66666666-333333-66666666------------------------------------------| 
E|---------------------------------------------------------------------------| 


Chorus:
E|---------------------------------------------------------------------------| 
B|---------------------------------------------------------------------------| 
G|---------------------------------------------------------------------------| 
D|-3333333-66666666-88888888-111111111111111111------------------------------|(x2) 
A|-3333333-66666666-88888888-111111111111111111------------------------------| 
E|-1111111-44444444-66666666--9-9-9-9-9-9-9-9-9------------------------------|


E|---------------------------------------------------------------------------| 
B|---------------------------------------------------------------------------| 
G|---------------------------------------------------------------------------| 
D|--------1-------1-------1-------1------------------------------------------|
A|--0031-3--0031-3--0031-3--0031-3-------------------------------------------| 
E|---------------------------------------------------------------------------|


Solo:
E|---------------------------------------------------------------------------| 
B|---7-7-7-7-7-7-7-7-7-9-7-8-7-8-7-9--7-7-7-7-7-7-7-7-7-9-7-8-7-8-7-9--------| 
G|---------------------------------------------------------------------------| 
D|---------------------------------------------------------------------------|
A|---------------------------------------------------------------------------| 
E|---------------------------------------------------------------------------|


E|---------------------------------------------------------------------------| 
B|-7-7-7-7-7-7-7-7-7-9-7-8-7-8-7--9-9-9-9-9-9-9-9-9-9-9-11-11-11-11-11-11-11-| 
G|---------------------------------------------------------------------------| 
D|---------------------------------------------------------------------------|
A|---------------------------------------------------------------------------| 
E|---------------------------------------------------------------------------|

Chorus:
E|---------------------------------------------------------------------------| 
B|---------------------------------------------------------------------------| 
G|---------------------------------------------------------------------------| 
D|-3333333-66666666-88888888-111111111111111111------------------------------|(x2) 
A|-3333333-66666666-88888888-111111111111111111------------------------------| 
E|-1111111-44444444-66666666--9-9-9-9-9-9-9-9-9------------------------------|


E|---------------------------------------------------------------------------| 
B|---------------------------------------------------------------------------| 
G|---------------------------------------------------------------------------| 
D|--------1-------1-------1-------1------------------------------------------|
A|--0031-3--0031-3--0031-3--0031-3-------------------------------------------| 
E|---------------------------------------------------------------------------|



Verse: 3 
E|---------------------------------------------------------------------------| 
B|---------------------------------------------------------------------------| 
G|--------------------------------------------------------55555-88888--------| 
D|---7XXXXXXXX-77777-7XXXXXXXXX-77777-7XXXXXXXXX-77777----55555-88888--------|(X2) 
A|---7XXXXXXXX-77777-7XXXXXXXXX-77777-7XXXXXXXXX-77777----33333-66666--------| 
E|---5XXXXXXXX-55555-5XXXXXXXXX-55555-5XXXXXXXXX-55555-----------------------| 
Chorus:
E|---------------------------------------------------------------------------| 
B|---------------------------------------------------------------------------| 
G|---------------------------------------------------------------------------| 
D|-3333333-66666666-88888888-111111111111111111------------------------------|(x2) 
A|-3333333-66666666-88888888-111111111111111111------------------------------| 
E|-1111111-44444444-66666666--9-9-9-9-9-9-9-9-9------------------------------|

Outtro:
E|---------------------------------------------------------------------------| 
B|---------------------------------------------------------------------------| 
G|---------------------------------------------------------------------------| 
D|--------1-------1-------1-------1-------1-------1-------1------------------|
A|--0031-3--0031-3--0031-3--0031-3--0031-3--0031-3--0031-3------3--1--3------| 
E|---------------------------------------------------------------------------| 
Tap to rate this tab
# A B C D E F G H I J K L M N O P Q R S T U V W X Y Z