Song name
# A B C D E F G H I J K L M N O P Q R S T U V W X Y Z

Razor - Rebal Onslaught tab

----------------------------------------------------------------------------
			     REBAL ONSLAUGHT - RAZOR
----------------------------------------------------------------------------

MALICIOUS INTENT!!!


Tabbed by: THE BUDDUH MASTA
Email:pleasure_2_kill@yahoo.com

Tuning: Standard E (fattened sounds more evil to me)


(intro 0:01 - 0:18)

   **   **   **   **                       **   ***
e|------------------------------------------------------------------------|
B|------------------------------------------------------------------------|
G|-------------------------8-7--------------------------------------------|
D|----8----8----8----8---------8-7-------8----8------5-\-7---77-----------|
A|----6----6----6----6-------------8-----6----6------3-\-5---55-----------|
E|-00---00---00---00-----------------------00---000-----------------------|


(0:19 - 0:53)
(0:36)We've built up our courage.....With mass devastation still stands

(hard to tab out but this is the part were you juz go off on the open D string, 
easy to follow by ear)
                                                                       A.H
e|--------------------------------------------------------------------------|
B|--------------------------------------------------------------------------|
G|----------------------------------------------------------------------5---|
D|00000-8-0000-7-0000-10-0000-7-0000-8-00000-8-0000-7-0000-5-0000-5-000-----|
A|--------------------------------------------------------------------------|
E|--------------------------------------------------------------------------|

(intro 0:53 - 1:09)

We strive for the right of our nation's demise...'til Rebel Onslaught rules again


   **   **   **   **                       **   ***
e|------------------------------------------------------------------------|
B|------------------------------------------------------------------------|
G|-------------------------8-7--------------------------------------------|
D|----8----8----8----8---------8-7-------8----8------5-\-7---77-----------|
A|----6----6----6----6-------------8-----6----6------3-\-5---55-----------|
E|-00---00---00---00-----------------------00---000-----------------------|


(1:10 - 1:25)
The hunters are hunted ...They've rotted our minds to the core

                                                                       A.H
e|--------------------------------------------------------------------------|
B|--------------------------------------------------------------------------|
G|----------------------------------------------------------------------5---|
D|00000-8-0000-7-0000-10-0000-7-0000-8-00000-8-0000-7-0000-5-0000-5-000-----|
A|--------------------------------------------------------------------------|
E|--------------------------------------------------------------------------|

(1:26 - 1:42)


   **   **   **   **                       **   ***              Stop
e|------------------------------------------------------------------------|
B|------------------------------------------------------------------------|
G|-------------------------8-7--------------------------------------------|
D|----8----8----8----8---------8-7-------8----8------5-\-7---77----2------|
A|----6----6----6----6-------------8-----6----6------3-\-5---55----0------|
E|-00---00---00---00-----------------------00---000-----------------------|

(1:42)
(BASSLINE runs while the guitar stops)

(bass)
G|-------------|--------------|--------------|-------------|-------------|
D|----------1--|------------1-|------------1-|-----------1-|-----------1-|
A|-0---3-1-0---|-0---3-1-0----|-0---3-1-0----|-0---3-1-0---|-0---3-1-0---|
E|-------------|--------------|--------------|-------------|-------------|
(guitar) (1:42)
e|-------------|--------------|--------------|-------------|------------|
B|-------------|--------------|--------------|-------------|------------|
G|-------------|--------------|--------------|-------------|------------|
D|--2----------|--2-----------|---2----------|----2--------|-----2------|
A|--0----------|--0-----------|---0----------|----0--------|-----0------|
E|-------------|--------------|--------------|-------------|------------|

(Solo interlude 1:54)

e|------------------------------------|
B|------------------------------------|
G|-------5-7(trill)-------------------|
D|------------------2-----5-----8--7--|
A|------------------0-----3-----6--5--|
E|------------------------------------|

Cant figure out the solo, but this is the way I play it= A minor pentatonic
e|--------------------------------------------------------------------------|
B|--------------------------------------------------------------------------|
G|--------------------------------------------------------------------------|
D|--------------------------------------------------------------------------|
A|--------20---------------20---------20---------------20-------------------|
E|---20p17---17-20p17-20p17---17-20p17---17-20p17-20p17---17---20b21--20b21-|

e|---------------------------------------------------------------------------|
B|---------------------------------------------------------------------------|
G|---------------------------------------------------------------------------|
D|---------------------------------------------------------------------------|
A|---------------------------------------------------------------------------|
E|-20b21--20b21--20b21--20b21---17hp20p17h20-17hp20p17h20-17hp20p17h20-------|

e|--------------------------------------------------------------------------|
B|--------------------------------------------------------------------------|
G|--------------------------------------------------------------------------|
D|--------------------------------------------------------------------------|
A|--------------------20b22-20b22-20b22-20b22-------------------------------|
E|-17hp20p17h20p17----17----17----17----17----------------------------------|


e|-------------|--------------|--------------|-------------|-------------|
B|-------------|--------------|--------------|-------------|-------------|
G|----------3--|------------3-|------------3-|-----------3-|-----------3-|
D|-2--------1--|-2----------1-|-2----------1-|-2---------1-|-2---------1-|
A|-0---3-1p0---|-0---3-1p0----|-0---3-1p0----|-0---3-1p0---|-0---3-1p0---|
E|-------------|--------------|--------------|-------------|-------------|


at this point the song juz repeats iself.
Clap it up....you juz learned a razor song


************************************
LEGEND
*=Palm Mute
\=Slide foward
A.H=Artificial Harmonic
b=bend
p=pull off
h=hammer on
Tap to rate this tab
# A B C D E F G H I J K L M N O P Q R S T U V W X Y Z