Song name
# A B C D E F G H I J K L M N O P Q R S T U V W X Y Z

Razor - Rebel Onslaught tab

----------------------------------------------------------------------------
			     Rebel Onslaught - Razor
----------------------------------------------------------------------------

MALICIOUS INTENT

Tabbed by: Thee Booduh Masta
Email:pleasure_2_kill91@yahoo.com

Tuning:Eb (thats e flat for u sloe people out thurr)

Intro = Riff uno (played 4 times) not 5 times or 3 times
(0:01 - 0:18)
   xx   xx   xx   xx                 xx   xxx
e|--------------------------------------------------------------------------|
B|--------------------------------------------------------------------------|
G|----------------------8-7-------------------------------------------------|
D|----8----8----8----8-----8-7-----8----8-----5-/-7----7-7------------------|
A|----6----6----6----6---------8---6----6-----3-/-5----5-5------------------|
E|-00---00---00---00-----------------00---000-------------------------------|

Riff 2

This is the part where u juz go off on the open d string...kinda hard to tab it out 
u can easily follow it by ear


(0:19 - 0:52)
(0:36) Lyrics drop in
We've built up our courage.......With mass devastation still stands
                                                                        +
e|--------------------------------------------------------------------------|
B|--------------------------------------------------------------------------|
G|----------------------------------------------------------------------5---|
D|-0000-8-0000-7-0000-10-0000-7-0000-8-0000-8-0000-7-0000-5-0000-5-0000-----|
A|--------------------------------------------------------------------------|
E|--------------------------------------------------------------------------|

(0:52 - 1:09)
We strive for the right of our nation's demise...'til Rebel Onslaught rules again

  xx   xx   xx   xx                 xx   xxx
e|--------------------------------------------------------------------------|
B|--------------------------------------------------------------------------|
G|----------------------8-7-------------------------------------------------|
D|----8----8----8----8-----8-7-----8----8-----5-/-7----7-7------------------|
A|----6----6----6----6---------8---6----6-----3-/-5----5-5------------------|
E|-00---00---00---00-----------------00---000-------------------------------|

(1:10 - 1:25)
The hunters are hunted...They've rotted our minds to the core
                                                                        +
e|--------------------------------------------------------------------------|
B|--------------------------------------------------------------------------|
G|----------------------------------------------------------------------5---|
D|-0000-8-0000-7-0000-10-0000-7-0000-8-0000-8-0000-7-0000-5-0000-5-0000-----|
A|--------------------------------------------------------------------------|
E|--------------------------------------------------------------------------|

(1:26 - 1:41)
We strive for the right of our nation's demise...'til Rebel Onslaught rules again

   xx   xx   xx   xx                 xx   xxx
e|---------------------------------------------------------------------------|
B|---------------------------------------------------------------------------|
G|----------------------8-7--------------------------------------------------|
D|----8----8----8----8-----8-7-----8----8-----5-/-7----7-7-------------------|
A|----6----6----6----6---------8---6----6-----3-/-5----5-5-------------------|
E|-00---00---00---00-----------------00---000--------------------------------|

(BASSLINE comes in when the guitar catches the note)
(1:42)

bass
G|------------|------------|------------|------------|------------|
D|----------1-|----------1-|----------1-|----------1-|----------1-|
A|-0---3-1-0--|-0---3-1-0--|-0---3-1-0--|-0---3-1-0--|-0---3-1-0--|
E|------------|------------|------------|------------|------------|

guitar                                                 Let ring
e|-------------|-----------|------------|------------|------------|
B|-------------|-----------|------------|------------|------------|
G|-------------|-----------|------------|------------|------------|
D|-2-----------|-2---------|-2----------|-2----------|-2----------|
A|-0-----------|-0---------|-0----------|-0----------|-0----------|
E|-------------|-----------|------------|------------|------------|

Solo Interlude
(1:54)
e|-----------------------------------------------------------|
B|-----------------------------------------------------------|
G|-----------------------------------------------------------|
D|---5h7(trill)--2--------5----8----7------------------------|
A|---------------0--------3----6----5------------------------|
E|-----------------------------------------------------------|

Not sure how to play the solo but this is how i bust it....keepin it short n simple guyz

(2:00)
e|--20p17--17-20p17h20p17--17-20p17--17-20p17h20p17---17--20b21------|
B|-------20--------------20--------20--------------20----------------|
G|-------------------------------------------------------------------|
D|-------------------------------------------------------------------|
A|-------------------------------------------------------------------|
E|-------------------------------------------------------------------|

e|-20b21-20b21-20b21-20b21-20b21--17h20p17h20-17h20p17h20-17h20p17h20-|
B|--------------------------------------------------------------------|
G|--------------------------------------------------------------------|
D|--------------------------------------------------------------------|
A|--------------------------------------------------------------------|
E|--------------------------------------------------------------------|

e|-17h20p17h20-17h20p17h20p17h20--17----17----17----17---------------|
B|--------------------------------20b22-20b22-20b22-20b22------------|
G|-------------------------------------------------------------------|
D|-------------------------------------------------------------------|
A|-------------------------------------------------------------------|
E|-------------------------------------------------------------------|

Back to rythme
(2:08) (played t times)
e|------------|------------|------------|------------|------------|
B|------------|------------|------------|------------|------------|
G|----------3-|----------3-|----------3-|----------3-|----------3-|
D|-2--------1-|-2--------1-|-2--------1-|-2--------1-|-2--------1-|
A|-0-0-3-1-0--|-0-0-3-1-0--|-0-0-3-1-0--|-0-0-3-1-0--|-0-0-3-1-0--|
E|------------|------------|------------|------------|------------|

From this point, the song pretty much repeats itself
so clap it up for yourself...you juz learned a razor song
go treat yourself to some nice warm hot coco and go read a book.......NOT
go show the word that u know a eff-ing razor song
************************************

| /   slide up
| h   hammer-on
| p   pull-off
| +   harmonic
| x   Mute note
| b   Bend
************************************
Tap to rate this tab
# A B C D E F G H I J K L M N O P Q R S T U V W X Y Z