Song name
# A B C D E F G H I J K L M N O P Q R S T U V W X Y Z

Razorback - Tikmanangulan tab

"TIKMANANGULAN" by Razorback
transcribed by freongang


intro:
e-------------------------------------------------|
b-------------------------------------------------|
g------------------------------------------^------|
d-----------------------------------------7-6-----|
a----------5-7----------5-7----------5-7------7-5-|
e--0-7---7------0-7---7------0-7---7--------------|

minsan lang umulan....
e-------------------------------------|
b-------------------------------------|
g-7-7-7--5-5-5--4-4-4--3-3-3--5-5-5---|
d-7-7-7--5-5-5--4-4-4--3-3-3--5-5-5---|
a-5-5-5--3-3-3--2-2-2--1-1-1--3-3-3---|
e-------------------------------------|

tikman ang ulan...
e----------|
b----^-^---|
g---7-8-9--|
d---7-8-9--|
a---5-6-7--|
e----------|



         visit me at: freongang_81@yahoo.com
                     freongang_08@yahoo.com
Tap to rate this tab
# A B C D E F G H I J K L M N O P Q R S T U V W X Y Z