Song name
# A B C D E F G H I J K L M N O P Q R S T U V W X Y Z

Razorback - Vegards Moon tab

Razor BACk                             \m/rock\m/
standard tuning. 

e--2--2---4p2--2-2--4-5--------|
b--2---------------------------|
g--2-2-2------2-2-2------------|
d------------------------------|
a------------------------------|
E------------------------------|

e--7--7-7--9/7-7/5-5/3-3/2-0---|
b--7---------------------------|
g--7-7-7-7---------------------|
d------------------------------|
a------------------------------|
E------------------------------|

pakinggan nyo nalng to sa song kung ilang ulet kaz medyo madame din eh kung may ibang
comment email nyo ko sa nrtmac@yahoo.com sa frendster "Princess23"
Tap to rate this tab
# A B C D E F G H I J K L M N O P Q R S T U V W X Y Z