Song name
# A B C D E F G H I J K L M N O P Q R S T U V W X Y Z

Razorback - Ikot Ng Mundo tab

Help us improve GuitareTab! Take a short survey!
                       "IKOT NG MUNDO"BY RAZORBACK
                          transcribed by:freon
                   visit me at: freongang_81@yahoo.com
                         freongang_08@yahoo.com

 intro:
 after acoustic intro
  (bass riffs)           (guitar riffs)
e|---------------  --------------------------|
B|---------------  --------------------------|
G|---------------  --------------------------|
D|---------------  --------------------------|
A|---------------  -7/8/7--5--3-5------------|
E|-5h6-5-3--1-3--  -5/6/5--3--1-3------------|

 sa bawat patak ng ulan...  (before chorus)
   as many times    
e|--------------  ----------------------|
B|--------------  ----------------------|
G|--------------  ----------------------|
D|-5-4-2--------  ----------------------|
A|-3-2-0-5-7----  --7-7-7-7-7-7-7-7-----|
E|-------3-5----  --5-5-5-5-5-5-5-5-----|

  sino bang ngpapaikot ng mundo....
e|-------------------------------------------------------|
B|-------------------------------------------------------|
G|--7-7-7-5-----------------------------5-5-5-5-5-5-5-5--|
D|--7-7-7-5--2-0-1--0-1-3--2-0-1--0-1-3-5-5-5-5-5-5-5-5--|
A|--5-5-5-3-----------------------------3-3-3-3-3-3-3-3--|
E|-------------------------------------------------------|
 
 paki para lng po.... bababa na ako
e|------------------------------------|
B|------------------------------------|
G|------------------------------------|
D|------------------------------------|
A|--7/8/7--5--3-5---------------------|
E|--5/6/5--3--1-3---------------------|
Related for Ikot Ng Mundo tab