Song name
# A B C D E F G H I J K L M N O P Q R S T U V W X Y Z

Razorback - Giyang tab

Song      : Giyang
Band      : Razorback
Tabbed by : Brandon Philip Llapitan
E-add     : brandon_rakista@yahoo.com
Tuning    : Standard

Astig na kanta, maganda, pero mahirap itab talaga ung solo part..
di ko na kinapa ung lead part sa last chorus kasi nahihirapan di aq ako dun..
sana magustuhan nyo to.. pakirate nman po....

Intro/Verse :
e---------------------------------|
b---------------------------------|
g---7--5b---7--5b---9---7---5-7-5-| 10x
d---7--5b---7--5b---9---7---5-7-5-|
a-0-------0-------0---0-----------|
E---------------------------------|

Chorus :
e------------------------------------------|
b------------------------------------------|
g------------------------------------------|2x
d-7~-----5~-----7~-----5~------------------|
a-7~-----3~-----7~-----5~-------10----10p7-|
E-5~------------5~-----3~---/12----12------|

Intro 2:
e---------------------------------|
b---------------------------------|
g---7--5b---7--5b---9---7---5-7-5-|
d---7--5b---7--5b---9---7---5-7-5-|
a-0-------0-------0---0-----------|
E---------------------------------|

e---------------------------------------|
b---------------------------------------|
g---7--5b---7--5b---9---7---5-7*b9r7~p5-|
d---7--5b---7--5b---9---7---5-----------|
a-0-------0-------0---0-----------------|
E---------------------------------------|

Verse 2 :
e---------------------------------|
b---------------------------------|
g---7--5b---7--5b---9---7---5-7-5-|4x
d---7--5b---7--5b---9---7---5-7-5-|
a-0-------0-------0---0-----------|
E---------------------------------|

Repeat Chorus 4x

Solo :
e-------------------------------------------------------------------------------------------|
b-15b17-15b17r15-------15p12-------15p12-------15p12-------15p12----------------------------|
g----------------14b16-------14b16-------14b16-------14b16-------16p14-14p12----16-14b16r14-|
d----------------------------------------------------------------------------12-------------|
a-------------------------------------------------------------------------------------------|
E-------------------------------------------------------------------------------------------|

e-------------------------------------------------------------------------------------------|
b-------------------------------------------------------------------------------------------|
g----12-14p12-16-14b16r14------12-14p12----12-14p12------------//16-1919--16-1919--16-1919--|
d-14------------------------14----------14----------14-12-14~-------------------------------|
a-------------------------------------------------------------------------------------------|
E-------------------------------------------------------------------------------------------|

e-------------------------------------------------------------------------------------------|
b----------------------------------------------------17-------17-----17-20p17----17-20p17---|
g-16-1919--16-1919--16-1919--16-1919--16-1919--16-19----16-19-----19----------19------------|
d-------------------------------------------------------------------------------------------|
a-------------------------------------------------------------------------------------------|
E-------------------------------------------------------------------------------------------|

e---------------------------------------------------------------------------------------------|
b----17-20p17----17-20p17----19-17b19r17~---15b17-15b17r15p12---------------------------------|
g-19----------19----------19----------------------------------14b16-16p14-14p12---16-14b16r14-|
d------------------------------------------------------------------------------14-------------|
a---------------------------------------------------------------------------------------------|
E---------------------------------------------------------------------------------------------|

e----------------------------------------------------------------------------15~-|
b--------------------------------------------------------------------------------|
g-12-14-14p12------------------14p12-----------------16-14-12-14p12~-------------|
d-------------12-14-12---12-14-------12-14-12----//14-------------------//14-----|
a--------------------------------------------------------------------------------|
E--------------------------------------------------------------------------------|

e---------------------------------------------------------------------------------|
b---------------------------------------------------------------------------------|
g-111111/12-111111/12-111111/12-111111/12-111111/12-111111/12-111111/12--/?/-/?/--|
d-121212/14-121212/14-121212/14-121212/14-121212/14-121212/14-121212/14--/?/-/?/--|
a---------------------------------------------------------------------------------|
E---------------------------------------------------------------------------------|

e--------------------------------------------------------------------------------------------------|
b---------------------------------------------13-15p13----13-15p13----------13---------------------|
g-121212/14-121212/14-121212/14-121212/14--14----------14----------14-12-14----14-12-14--14-12-14~-|
d-141414/16-141414/16-141414/16-141414/16----------------------------------------------------------|
a--------------------------------------------------------------------------------------------------|
E--------------------------------------------------------------------------------------------------|


Repeat verse 2..
Repeat chorus 6x(di ko na  nilagay ung lead part kasi mahirap, sariling diskarte nyo nalng..hehe!)

Then..

Outro :
My own outro(hehe!)
e------------------------------------------------------------------------------------|
b----------------------------------------8-------------------------------------------|
g----------------------------5~-5----5-7-7b9-7p5---5---------------------------------|
d-7~----5~----7~---5~----5-7------7~-------------7---7p5---5----------------------7~-|
a-7~----3~----5~---5~--7---------------------------------7---7/5-5p3---3----------7~-|
E-5~---------------3~------------------------------------------------5---5-3b~~~--5~-|
Tap to rate this tab
 
# A B C D E F G H I J K L M N O P Q R S T U V W X Y Z