Song name
# A B C D E F G H I J K L M N O P Q R S T U V W X Y Z

Razorlight - Hostage Of Love tab

                                Hostage of love                                 


                                                                      Razorlight
Дорожка 1



       intro                                                      
       ^             ^             ^     ^    v               v   
       E     S   S   E    S   S    E     S    S   S   S   S   S   
E||---(7)---(7)-(7)-(9)--(9)-(9)-(10)--(10)-(10)-(7)-(7)-(7)-(7)-|
B||----7-----7---7---9----9---9---10----10---10---7---7---7---7--|
G||*---7-----7---7---9----9---9---10----10---10---9---9---9---9--|
D||*---9-----9---9--11---11--11---12----12---12---9-------9---9--|
A||----9------------11------------12--------------7-----------7--|
E||----7-------------9------------10-----------------------------|


   ^                ^         v     
   E   S  E   S  E  E  S E  S E   6x
----------------------------------||
--10--10-10--10--9--7--7-7--7-5---||
--12--12-12--12-11--9--9-9--9-7--*||
--12--12-----12-11--9----9--9-7--*||
--10---------10--9--7-------7-5---||
----------------------------------||





Duration Legend
---------------

E - 8th
S - 16th



Tablature Legend
----------------

^ - brush up
v - brush down
Tap to rate this tab
# A B C D E F G H I J K L M N O P Q R S T U V W X Y Z