Song name
# A B C D E F G H I J K L M N O P Q R S T U V W X Y Z

Razorlight - Up All Night tab

Razorlight - Up all Night (solo)
Philip Martin

Great song, and great lead aswell. This is what i figured from hearing the solo, so its 
100% but it fits, enjoy!


Standard Tuning:

e|---------------------------------------------|------|
b|--(10-10-10)--(8-8-8-8)--------------6-----6-|------|
g|-------------------------5-5-5-5-5h7---5h7---|------|
d|---------------------------------------------|------|
a|---------------------------------------------|------|
E|---------------------------------------------|------|


-|------------------------------------------------------|
-|--(10-10-10)--(8-8-8)--(13-13-13)---15-18-17-15-------|
-|------------------------------------------------------|
-|------------------------------------------------------|
-|------------------------------------------------------|
-|------------------------------------------------------|

Last half of the solo:

e|-(15-15-15)--(17-17-17)----13-15-17-18-17-15-13-15-|-----|
b|---------------------------------------------------|-----|
g|---------------------------------------------------|-----|
d|---------------------------------------------------|-----|
a|---------------------------------------------------|-----|
E|---------------------------------------------------|-----|

--|--(17-17-17)---(22-22-22)---(20-20-20)--|
--|----------------------------------------|
--|----------------------------------------|
--|----------------------------------------|
--|----------------------------------------|
--|----------------------------------------|

Remember some of these notes are not filled out to be exact, what i mean is there isnt 
three 10's at the start
of the solo, theres a lot of rapid notes there but ive just not bothered to write them 
in, but any single notes
are supposed to be single. Ive put brackets round the notes where you play them alot 
than shown on here.

Cheers,
       Phil Martin
Tap to rate this tab
# A B C D E F G H I J K L M N O P Q R S T U V W X Y Z