Song name
# A B C D E F G H I J K L M N O P Q R S T U V W X Y Z

Razorlight - America tab

hello, this intro is quit easy if you use a C chord
you play it with capo 7 
I hope you like 
in my opion he is totally correct so vote plz :)
send in by purplefreak.

E||-------------------|-------------------|-------------------|
B||---------3---------|-------------------|---1------3--------|
G||---0------0--------|----2-0-2-0--------|----0--------------|
D||--2-----4----------|-------------------|--2------4---------|
A||-3-----5-----------|-22----------------|-3------5----------|
E||-------------------|-------------------|-------------------|

E||-------------------|----3-0--0---0------------------------|
B||---0---------------|--------0-----3-1-0-1-0---------3-----|
G||----2-0------------|---------------------------0-----0----|
D||--0----------------|--2---------2-------------2----4------|
A||-2-----------------|-3---------3-------------3----5-------|
E||-------------------|--------------------------------------|

E||------2>3--0--------------------------|
B||--------------------------------------|
G||------------------0-------------------|
D||---0-------------2--------------------|
A||--2-------------3---------------------|
E||--------------------------------------|

details:
> ; just move you finger to other position without rehit him

by 2-0 2-0 and 1-0-1-0 you can try to remove your finger in 1 fraction after you hit the snair.
that sounds alot better.
Good Luck!

Tap to rate this tab
# A B C D E F G H I J K L M N O P Q R S T U V W X Y Z