Song name
# A B C D E F G H I J K L M N O P Q R S T U V W X Y Z

Razorlight - Hostage Of Love tab

-----------------------------------------------------------------------------
	       Hostage of love - Razorlight
-----------------------------------------------------------------------------
Tabbed by: uli

Intro:

Tuning => Capo 7th fret
  
   Bm          Bm7          D                     
  (Em)        (Em7)        (G)                    
  
    ^   ^  v    ^   ^  v    ^   ^  v  ^  v  ^  v  
    E   S  S    E   S  S    E   S  S  S  S  S  S  
e|------0--0--------0--0--------0--0--0--0--0--0-|
B|------0--0--------0--0--------0--0--0--0--0--0-|
G|------0--0--------0--0--------0--0--0--0--0--0-|
D|------2--2--------2--2--------0--0--0--0--0--0-|
A|--2---2--2----0---0--0----2---------2--2--0--0-|
E|--0-----------2-----------3--------------------|

   G                       A
  (C)                     (D)
   ^   ^  v  ^  v  ^  v    ^   ^  v  ^  v  ^  v
   E   S  S  S  S  S  S    E   S  S  S  S  S  S
e|-----0--0--0--0--0--0--------2--2--2--2-----0--| 
B|-----1--1--1--1--0--0--------3--3--3--3-----0--|
G|-----0--0--0--0--0--0--------2--2--2--2-----0--|
D|-2---2--2--2--2--0--0----0---0--0--0--0--0--0--|
A|-3---------------3--3----0---------------0-----|
E|-----------------------------------------------|
reprise it once

Verse:

   Bm                       A                    
  (Em)                     (D)                   

    ^   ^  v  ^  v  ^  v    ^   ^  v  ^  v  ^  v  
    E   S  S  S  S  S  S    E   S  S  S  S  S  S  
e|------0--0--0--0--0--0--------2--2--2--2--0--0-|
B|------0--0--0--0--0--0--------3--3--3--3--0--0-|
G|------0--0--0--0--0--0--------2--2--2--2--0--0-|
D|------2--2--2--2--2--0----0---0--0--0--0--0--0-|
A|--2---2--2--2--2--2--0----0---------------0--0-|
E|--0--------------------------------------------|
 1. You make yourself 
 
   G
  (C)
   ^   ^  v  ^  v  ^  v    ^   ^  v  ^  v  ^  v
   E   S  S  S  S  S  S    E   S  S  S  S  S  S
|------0--0--0--0--0--0--------0--0--0--0--0--0--|
|------1--1--1--1--1--1--------1--1--1--1--1--1--|
|------0--0--0--0--0--0--------0--0--0--0--0--0--|
|--2---2--2--2--2--2--2----2---2--2--2--2--2--2--|
|--3---3--3--3--3--3--3----3---3--3--3--3--3--3--|
|------------------------------------------------|
                      a prisoner of me.....
                      
play this schema during the whole verse
          
Verse 2.: You turn from me...

Intro once again

Verse 3. + 4.

Chorus:

D(G)                A(D)   G(C)
You see we've been  born again
            D(G)                 A(D)      G(C)
Since you've slept there in that lion's den, den
G(C)   D(G)     A(D)
You can not be saved
                G(C) D(G)   A(D)
You gave your innocence away, 
    Bm(Em)
Ohh oh

Verse 5. + 6

Chorus 2x

Intro + Outro(Same as Intro)

************************************
Duration Legend
---------------
E - 8th
S - 16th

Tablature Legend
----------------
^ - brush up
v - brush down
************************************
Tap to rate this tab
 
# A B C D E F G H I J K L M N O P Q R S T U V W X Y Z