Song name
# A B C D E F G H I J K L M N O P Q R S T U V W X Y Z

Razorlight - America tab

Capo: 7th fret
Chords: standard open chords

Intro:

    C             D           G               C
e-|---------------------------------------------------------|
B-|---------------------3--3--------------------------------|
G-|--------0---------------0-----2--2-p-0--0--0-----0-------|
D-|-----2------------4--------------------------------------|
A-|--3--------3-/-5-----------2------------------3----------|
E-|---------------------------------------------------------|

    C               D             G               C
E-|---------------------------------------------------------|
B-|--------1-1----------------3-----------0-----------------|
G-|----------0-------------------0-----------2-----0-----0--|
D-|-----2------------------4-----------0--------------------|
A-|--3--------------3-/-5-----------2-----------------3-----|
E-|---------------------------------------------------------|

      C             D             G               C
E-|--------3--0-----------2-p-0----0------------------------|
B-|-----1-----1--0--------------------3--0-h-1-p-0-h-1------|
G-|-----------------------------------------------------0---|
D-|-------------------------------0-------------------------|
A-|--3--------------5----------2----------------------------|
E-|---------------------------------------------------------|

    C             D             G               C
E-|------------------------------------2--3--0--------------|
B-|---------------------------------------------------------|
G-|--------0--0------------0--0--------------------0--------|
D-|-----2-----2---------4-----4-----0--------------2--------|
A-|--3-----------3-/-5-----------2--------------3-----------|
E-|---------------------------------------------------------|


Verse: (play intro or strumm chords C  D  G  C)

What a drag it is
The shape i'm in
Well I go out somewhere
Then I come home again
I light a cigarette
'Cause I can't get no sleep
Theres nothing on the TV nothing on the radio
That means that much to me
All my life
Watching America
All my life
There's panic in America

Chorus:

c b  Am      D
     Oh Oh Oh, Oh
 G                 C
There's trouble in America
c b  Am    D    G (stop)
    Oh Oh Oh, Oh

Yesterday was easy
Happiness came and went
I got the movie script
But I don't know what it meant

I light a cigarette
'Cause I can't get no sleep
Theres nothing on the TV nothing on the radio
That means that much to me
Theres nothing on the TV nothing on the radio
That I can believe in

All my life
Watching America
All my life
There's panic in America
Oh Oh Oh, Oh
There's trouble in America
Oh Oh Oh, Oh
There's panic in America
Oh Oh Oh, Oh

Yesterday was easy
Yes I got the news
When you get it straight, but stand up you just can't lose

Give you my confidence, all my faith in life
Don't let me down
I need you tonight
To hold me, say you'll be here
To hold me, say you'll be here
To hold me, say you'll be here
To hold..

All my life
Watching America
All my life
There's panic in America
Oh Oh Oh, Oh
There's trouble in America
Oh Oh Oh, Oh
Tell me how does it feel

(note: 'c' and 'b' are bass notes)
Tap to rate this tab
 
# A B C D E F G H I J K L M N O P Q R S T U V W X Y Z