Song name
# A B C D E F G H I J K L M N O P Q R S T U V W X Y Z

Razorlight - Stumble And Fall tab

-----------------------------------------------------------------------------
			     Stumble and Fall - Razorlight
-----------------------------------------------------------------------------
Tabbed by:Alex Branchini

Tuning:EADGBD

Very quites econd guitar part.

e|---------------------------------------------------------------------------|
B|----------6-----------------------10-----10--------------------------------|
G|--------------------7----------9-------9-----------------------------------|
D|-------7---------9---------10----------------------------------------------|
A|----5---------7---------8--------------------------------------------------|
E|---------------------------------------------------------------------------|
Tap to rate this tab
 
# A B C D E F G H I J K L M N O P Q R S T U V W X Y Z