Song name
# A B C D E F G H I J K L M N O P Q R S T U V W X Y Z

Razorlight - Who Needs Love tab

intro and verse
e--5--------2-------|
b--5--X 7---2-X 7---|
g--6--------2-------|
d-----------2-------|
a-------------------|
e-------------------|
repeat until the obvious change
e-2-------0-------|
b-3--X 7--0--x 7--|
g-2---------------|
d-----------------|
a-----------------|
e-----------------|

repeat pattern throughout the song

Solo
e------------------------------------------------------------|
b------------------------------------------------------------|
g-----14--16-16b-16-14-11b-11b-----14--16-16b-16-14-11b-11---|b
d-/14--------------------------/14---------------------------|
a------------------------------------------------------------|
e------------------------------------------------------------|

e------------------------------------------17-|
b---------------------------------------------|
g-----14-16-16b-16-14-19-18-16b-16-14-14------|
d-/14-----------------------------------------|
a---------------------------------------------|
e---------------------------------------------|


This is played a few times in the outro
e------------------------------------------------------------|
b------------------------------------------------------------|
g-----14--16-16b-16-14-11b-11b-----14--16-16b-16-14-11b-11---|b
d-/14--------------------------/14---------------------------|
a------------------------------------------------------------|
e------------------------------------------------------------|
Tap to rate this tab
# A B C D E F G H I J K L M N O P Q R S T U V W X Y Z