Song name
# A B C D E F G H I J K L M N O P Q R S T U V W X Y Z

Razorlight - Kirbys House tab

Artist: Razorlight
Title:  Kirby’s House
Tuning: Standard

Solo
--------------------------------------------------|
-----7---------------------------8-7-----10-------|
---------9---9-7---7-9---9-7---7-----9-7----9-7---|
-5/7---7---7-----5-----7-----5------------------7-|
--------------------------------------------------|
--------------------------------------------------|

----------------10-----------9-9h10p9----------|
---7---8---10-----------12------------12-10/12-|
--------------11---11\7----9-------------------|
-7---9---12------------------------------------|
-----------------------------------------------|
-----------------------------------------------|

-------10-------10-------12-15-12/14----|
-10h12----10h12----12/15-------------15-|
----------------------------------------|
----------------------------------------|
----------------------------------------|
----------------------------------------|

Tabbed by: Arjan Hoek
Tap to rate this tab
 
# A B C D E F G H I J K L M N O P Q R S T U V W X Y Z