Song name
# A B C D E F G H I J K L M N O P Q R S T U V W X Y Z

Razors Edge - Train Train Train tab

train train train


razors edge


TRANSCRIBED BY RUDY GUZMAN


guzman_84@hotmail.com




                                               
e:--------------------------------------------------------------|
B:--------------------------------------------------------------|
G:-7-7-7-7-7-7-7-7-7-7-7-7-7-7-7-7-7-7-7-7-7-7-7-7-7-7-7-7-7----|
D:-7-7-7-7-7-7-7-7-7-7-7-7-7-7-7-7-7-7-7-7-7-7-7-7-7-7-7-7-7--7-|
A:-5-5-5-5-5-5-5-5-5-5-5-5-5-5-5-5-5-5-5-5-5-5-5-5-5-5-5-5-5--7-|
E:------------------------------------------------------------5-|

  verse
   kill me baby now     i`m the king of the pour
e:--------------------------------------------|
B:--------------------------------------------|
G:-7-7-7-7-7-7-7-7-7-7------------------------|
D:-7-7-7-7-7-7-7-7-7-7--7-7-7-7-7-7-7-7-7-7-7-|
A:-5-5-5-5-5-5-5-5-5-5--7-7-7-7-7-7-7-7-7-7-7-|
E:----------------------5-5-5-5-5-5-5-5-5-5-5-|

   yesterday i was happy  i drunk so many fuckin` much
e:------------------------------------------|
B:------------------------------------------|
G:-5-5-5-5-5-5-5-5-5-5----------------------|
D:-5-5-5-5-5-5-5-5-5-5--5-5-5-5-5-5-5-5-5-5-|
A:-3-3-3-3-3-3-3-3-3-3--5-5-5-5-5-5-5-5-5-5-|
E:----------------------3-3-3-3-3-3-3-3-3-3-|


   i go fuckin' crazy               
e:------------------------|
B:------------------------|
G:-7--7--------------5--5-|
D:-7--7--7--7--5--5--5--5-|
A:-5--5--7--7--5--5--3--3-|
E:-------5--5--3--3-------|

e:----------------------|
B:----------------------|
G:-7--7-----------5-5-5-|
D:-7--7--7--7--5--5-5-5-|
A:-5--5--7--7--5--3-3-3-|
E:-------5--5--3--------|

e:-------------------------------------------------|
B:-------------------------------------------------|
G:-7--x-7--x-7--x-7--x-7--5--7-7--x-7--x-7--x-7----|
D:-7--x-7--x-7--x-7--x-7--5--7-7--x-7--x-7--x-7--7-|
A:-5--x-5--x-5--x-5--x-5--3--5-5--x-5--x-5--x-5--7-|
E:-----------------------------------------------5-|


   kill me baby now     i`m the king of the pour
   gt1
e:--------------------------------------------|
B:--------------------------------------------|
G:-7-7-7-7-7-7-7-7-7-7------------------------|
D:-7-7-7-7-7-7-7-7-7-7--7-7-7-7-7-7-7-7-7-7-7-|
A:-5-5-5-5-5-5-5-5-5-5--7-7-7-7-7-7-7-7-7-7-7-|
E:----------------------5-5-5-5-5-5-5-5-5-5-5-|
   gt2
e:--------------------------------------------|
B:--------------------------------------------|
G:-7-7-7-7-7-7-7-7-7-7------------------------|
D:-x-x-x-x-x-x-x-x-x-x--7-7-7-7-7-7-7-7-7-7-7-|
A:-5-5-5-5-5-5-5-5-5-5--x-x-x-x-x-x-x-x-x-x-x-|
E:----------------------5-5-5-5-5-5-5-5-5-5-5-|

   yesterday i was happy  i drunk so many fuckin` much
   gt1
e:------------------------------------------|
B:------------------------------------------|
G:-5-5-5-5-5-5-5-5-5-5----------------------|
D:-5-5-5-5-5-5-5-5-5-5--5-5-5-5-5-5-5-5-5-5-|
A:-3-3-3-3-3-3-3-3-3-3--5-5-5-5-5-5-5-5-5-5-|
E:----------------------3-3-3-3-3-3-3-3-3-3-|
   gt2
e:------------------------------------------|
B:------------------------------------------|
G:-5-5-5-5-5-5-5-5-5-5----------------------|
D:-x-x-x-x-x-x-x-x-x-x--5-5-5-5-5-5-5-5-5-5-|
A:-3-3-3-3-3-3-3-3-3-3--x-x-x-x-x-x-x-x-x-x-|
E:----------------------3-3-3-3-3-3-3-3-3-3-|


   i go fuckin' crazy                    
e:------------------------|
B:------------------------|
G:-7--7--------------5--5-|
D:-7--7--7--7--5--5--5--5-|
A:-5--5--7--7--5--5--3--3-|
E:-------5--5--3--3-------|

e:----------------------|
B:----------------------|
G:-7--7-----------5-5-5-|
D:-7--7--7--7--5--5-5-5-|
A:-5--5--7--7--5--3-3-3-|
E:-------5--5--3--------|


e:-------------------------------------------------|
B:-------------------------------------------------|
G:-7--x-7--x-7--x-7--x-7--5--7-7--x-7--x-7--x-7--5-|
D:-7--x-7--x-7--x-7--x-7--5--7-7--x-7--x-7--x-7--5-|
A:-5--x-5--x-5--x-5--x-5--3--5-5--x-5--x-5--x-5--3-|
E:-------------------------------------------------|


e:---------------------------------------------------------------------|
B:---------------------------------------------------------------------|
G:-7-7--7-7-7-7-7-7-7-7--7-7--7-7-7-7-7-7-7-7--7-7--7-7-7-7-7-7-7-7----|
D:-7-7--7-7-7-7-7-7-7-7--7-7--7-7-7-7-7-7-7-7--7-7--7-7-7-7-7-7-7-7--7-|
A:-5-5--5-5-5-5-5-5-5-5--5-5--5-5-5-5-5-5-5-5--5-5--5-5-5-5-5-5-5-5--7-|
E:-------------------------------------------------------------------5-|

   kill me baby now     i`m the king of the pour  yesterday i was happy  i drunk 
so many fuckin` much
   gt1
e:------------------------------------------------------------------------------------|
B:------------------------------------------------------------------------------------|
G:-8-8-8-8-8-8-8-8-8-8-----------------------6-6-6-6-6-6-6-6-6-6----------------------|
D:-8-8-8-8-8-8-8-8-8-8--8-8-8-8-8-8-8-8-8-8--6-6-6-6-6-6-6-6-6-6--6-6-6-6-6-6-6-6-6-6-|
A:-6-6-6-6-6-6-6-6-6-6--8-8-8-8-8-8-8-8-8-8--4-4-4-4-4-4-4-4-4-4--6-6-6-6-6-6-6-6-6-6-|
E:----------------------6-6-6-6-6-6-6-6-6-6-----------------------4-4-4-4-4-4-4-4-4-4-|
   gt2
e:------------------------------------------------------------------------------------|
B:--------------------------------------------------------------------4-------4-------|
G:-8-8-8-8-8-8-8-8-8-8-----------------------6-6-6-6-6-6-6-6-6-6--------5-------5-----|
D:-x-x-x-x-x-x-x-x-x-x--8-8-8-8-8-8-8-8-8-8--x-x-x-x-x-x-x-x-x-x--6-6-----6-6-----6-6-|
A:-6-6-6-6-6-6-6-6-6-6--x-x-x-x-x-x-x-x-x-x--4-4-4-4-4-4-4-4-4-4--x-x-----x-x-----x-x-|
E:----------------------6-6-6-6-6-6-6-6-6-6-----------------------4-4-----4-4-----4-4-|

   i go fuckin' crazy
e:----------------------------------|
B:----------------------------------|
G:-8-8---------6-6--8-8---------6-6-|
D:-8-8-8-8-6-6-6-6--8-8-8-8-6-6-6-6-|
A:-6-6-8-8-6-6-4-4--6-6-8-8-6-6-4-4-|
E:-----6-6-4-4----------6-6-4-4-----|

   i go fuckin' crazy i`m the king of the pour of this world
e:--------------------------------------------|
B:--------------------------------------------|
G:-8-8------------6-6--8-8------------6-6---8-|
D:-8-8--8-8--6-6--6-6--8-8--8-8--6-6--6-6---8-|
A:-6-6--8-8--6-6--4-4--6-6--8-8--6-6--4-4---6-|
E:------6-6--4-4------------6-6--4-4----------|




hillo son mex

22/04/12
Tap to rate this tab
# A B C D E F G H I J K L M N O P Q R S T U V W X Y Z