Song name
# A B C D E F G H I J K L M N O P Q R S T U V W X Y Z

Rbd - A La Orilla tab

Gadd9 Fmaj7 Gadd9 Fmaj7

Gadd9                   Fmaj7
He perdido identidad de tanto creer en ti.
Gadd9              Fmaj7
Esperando un seal para pervivir.
Am                                C 
Siempre he sido tu incondicional, nada te ped.

|-------3-2-|---------3----|
|-----3-----|-----1-3------|
|---2-------|---2----------|
|-0---------|--------------|
|-----------|-3------------|
|-----------|--------------|

    D      C
No ms, no ms.

Gmaj9                             Fmaj7
Cuando hacemos el amor, pienso que todo est bien.
Gadd9                        Fmaj7
Ms despus dices adis y me pierdo en tu desdn.
Am                             C         
Tu silencio me hace mal, slo dejas confusin.

Same Riff as Above
    D       C
No ms, no ms.

Chorus
          G
Si es que no te puedes entregar,
    F
No puedo continuar
      Am                      C
A la orilla de un amor desesperado.
          G
Si es que no te puedo hacer feliz,
   F
No puedo seguir
     Am                       C
A la orilla de un amor desesperado.


G                             F
He vivido a tu merced y al suspiro de tu voz.
G                          F
Te profeso tanta fe, casi como religin.
Am                         C
Me he quedado sin aliento, ya no s quin soy.
    D       C
No ms, no ms.

Chorus

Solo
 
|-----------------|--------|----------------|--------|
|-----------------|--------|----------------|--------|
|-/12-16-14-12-10-|-(10)---|-/10-14-12-10-9-|-(9)----|
|-----------------|--------|----------------|--------|
|-----------------|--------|----------------|--------|
|-----------------|--------|----------------|--------|

(Use barre chords on fret 6 and up for D#, B and F)
     D#                   B
Slo breme tu corazn y dime la verdad,
    F           C
Sin miedo, sin miedo.
    D#                         B
Necesito escuchar de ti lo que sientes hoy por m,
    F           C D
Sin miedo, sin miedo.

Chorus

Solo (very similar to the first one)

Chorus

End

|-------------|-----|------|
|-------------|-----|------|
|-/14/12/14/7/|10/9/|-7----|
|-------------|-----|------|
|-------------|-----|------|
|-------------|-----|------|







Tap to rate this tab
# A B C D E F G H I J K L M N O P Q R S T U V W X Y Z