Guitaretab - guitar tabs
Song name
# A B C D E F G H I J K L M N O P Q R S T U V W X Y Z
Home / R / Rbd / Ensame tab

Rbd - Ensame tab

 e|-------------|-------------------|-----------------|
 B|-10-8-10-6s7-|-----7s8-7---------|-----------------|
 G|-------------|-7-7-------7s9-7-6-|-------7-7-------|
 D|-------------|-------------------|-7-7-9-----7s9-7-|
 A|-------------|-------------------|-----------------|
 E|-------------|-------------------|-----------------|

 e|-------------------|---------------------------|
 B|-----7s8-7---------|-------------7-0-5-7-------|
 G|-7-7-------7s9-7-6-|-------7-7-9---------6-7-6-|
 D|-------------------|-7-7-9---------------------|
 A|-------------------|---------------------------|
 E|-------------------|---------------------------|
[ Tab from: http://www.guitaretab.com/r/rbd/87464.html ]
Related for Ensame tab