Song name
# A B C D E F G H I J K L M N O P Q R S T U V W X Y Z

Rbd - Tras De Mi tab

Help us improve GuitareTab! Take a short survey!
^= bend
/= slide
*= muted
Tuning: standar EBGDAE.

E|-------------------------|
B|---5-5/9---7---5---------|
G|---*-*/*---*---*---5-----|
D|---3-3/7---5---3---*-----|
A|-------------------3-----|
E|-------------------------|

E|-----------------------------|
B|---5-5/9---7---5---7-7-7-5-3-|
G|---*-*/*---*---*---*-*-*-*-*-|
D|---3-3/7---5---3---5-5-5-3-1-|
A|-----------------------------|
E|-----------------------------|

E|-------------------------|
B|---5-5/9---7---5---------|
G|---*-*/*---*---*---5-----|
D|---3-3/7---5---3---*-----|
A|-------------------3-----|
E|-------------------------|

E|------------------------------
B|---5-5/9---7---5---12-12-12-9-7/12-12-9/14^--|
G|---*-*/*---*---*---*--*--*--*-*/*--*--*/*----|
D|---3-3/7---5---3---10-10-10-7-5/10-10-7/12^--|
A|---------------------------------------------|
E|---------------------------------------------|

tabbed by: camilo
e-mail: elmejordetv@yahoo.com
Related for Tras De Mi tab