Song name
# A B C D E F G H I J K L M N O P Q R S T U V W X Y Z

Rdgldgrn - I Love Lamp tab

I Love Lamp is a great song to play and learn on the guitar:
This'll be my first tab and i don't think there is another one on the internet so...

Standard Tuning

Intro:
e-------------------------3-3-3-3-3-5-5-7-7-3-3---------------------------------------|
B--5-5-5-5-5-5-5-5-3-3-3------------------------3-5-5-5-5-5-5-5-----------------------|
G-------------------------------------------------------------------------------------|
D-------------------------------------------------------------------------------------|
A-------------------------------------------------------------------------------------|
E-------------------------------------------------------------------------------------|

Main Riff: (It might be easier to barre on the 12th fret)
e-------------------------------------------------------------------------------------|
B---17p12---- 15--15--15p12-------15p12----------17p12---- 15--15--15\17---17---------|
G----------14---------------14p12-------14p12-----------14----------------------------|
D-------------------------------------------------------------------------------------|
A-------------------------------------------------------------------------------------|
E-------------------------------------------------------------------------------------|

e--------------------------------------------------------------------------------------|
B---17p12---- 15--15--15p12-------15p12----------12--15h12---- 12--15h12---------------|
G----------14---------------14p12-------14p12---------------14------------14--12--12---|
D--------------------------------------------------------------------------------------|
A--------------------------------------------------------------------------------------|
E--------------------------------------------------------------------------------------|



Verse:
It's just a day....
e---x--x--x--x--x--x--x--x---x---x--x--x--x--x--x---x------------------------------------|
B---3--3--3--3--3--3--3--3--/8---8--8--8--8--8--8--8-------------------------------------|
G---4--4--4--4--4--4--4--4--/9---9--9--9--9--9--9--9-------------------------------------|
D---5--5--5--5--5--5--5--5--/10-10-10-10-10-10-10-10----------play to suit speed---------|
A---5--5--5--5--5--5--5--5--/10-10-10-10-10-10-10-10-------------------------------------|
E---x--x--x--x--x--x--x--x----x--x--x--x--x--x---x--x------------------------------------|

Main Riff Bridge:
She said "I....
e---------------------------------------------------------------------------------------|
B---8-8-8-8-8-8-8-8-12-12-12-10-10-10-10-10--------------x4-----------------------------|
G---------------------------------------------------------------------------------------|
D---------------------------------------------------------------------------------------|
A---------------------------------------------------------------------------------------|
E---------------------------------------------------------------------------------------|

Yeah so thats it
Have fun playing it!!!

http://www.rdgldgrn.com/

George
Tap to rate this tab
# A B C D E F G H I J K L M N O P Q R S T U V W X Y Z