Song name
# A B C D E F G H I J K L M N O P Q R S T U V W X Y Z

Rdgldgrn - I Love Lamp tab

-------------------------------------------------------------------------------
                             I Love Lamp - RDGLDGRN
-------------------------------------------------------------------------------
Tabbed by: devincolahan
E-mail: dpc1olahan3@gmail.com

Hey everybody, this is my first tab. I saw no one had done it yet so I made it off of a 
youtube video. It sounds pretty accurate to me. Hope you like it!

Tuning: Standard

Intro: Repeated

e|-----------------------3-3-3-5-5-7-7-3-3-----------------------------------|
B|-5-5-5-5-5-5-5-5-3-3-3-------------------3-5-5-5-5-5-5-5-5-----------------|
G|---------------------------------------------------------------------------|
D|---------------------------------------------------------------------------|
A|---------------------------------------------------------------------------|
E|---------------------------------------------------------------------------|

Main Riff

e|---------------------------------------------------------------------------|
B|-17p12-12-15--15--15--15p12-------15p12------------------------------------|
G|----------------------------14p12-------14p12------------------------------|
D|---------------------------------------------------------------------------|
A|---------------------------------------------------------------------------|
E|---------------------------------------------------------------------------|


e|---------------------------------------------------------------------------|
B|-17p12-12-15--15--15--15s17--17--17----------------------------------------|
G|---------------------------------------------------------------------------|
D|---------------------------------------------------------------------------|
A|---------------------------------------------------------------------------|
E|---------------------------------------------------------------------------|

e|---------------------------------------------------------------------------|
B|-17p12-12-15--15--15--15p12-------15p12------------------------------------|
G|----------------------------14p12-------14p12------------------------------|
D|---------------------------------------------------------------------------|
A|---------------------------------------------------------------------------|
E|---------------------------------------------------------------------------|


e|---------------------------------------------------------------------------|
B|-12h15-12----12h15-12------------------------------------------------------|
G|----------14----------14-12-12-12------------------------------------------|
D|---------------------------------------------------------------------------|
A|---------------------------------------------------------------------------|
E|---------------------------------------------------------------------------|

Verse (strum with the song)

e|---------------------------------------------------------------------------|
B|-3---s---8-----------------------------------------------------------------|
G|-4---s---9-----------------------------------------------------------------|
D|-5---s---10----------------------------------------------------------------|
A|---------------------------------------------------------------------------|
E|---------------------------------------------------------------------------|

Chorus

e|---------------------------------------------------------------------------|
B|-8-8-8-8-8-8-8-8-12-12-12-10-10-10-10-10-----------------------------------|
G|---------------------------------------------------------------------------|
D|---------------------------------------------------------------------------|
A|---------------------------------------------------------------------------|
E|---------------------------------------------------------------------------|

Chorus Ending

e|---------------------------------------------------------------------------|
B|-8-8-8-8-8-8-8-8-----------------------------------------------------------|
G|---------------------------------------------------------------------------|
D|---------------------------------------------------------------------------|
A|---------------------------------------------------------------------------|
E|---------------------------------------------------------------------------|

Song Order:
Intro X2
Main Riff X1
Verse X2
Chorus X3
Chorus Ending X1
Main Riff X1
Verse X3
Chorus X3
Chorus Ending X1
Main Riff X1
Verse X2
End on the first note of the verse

And that's it!

************************************

| /   slide up
| \   slide down
| h   hammer-on
| p   pull-off
| ~   vibrato
| +   harmonic
| x   Mute note
| b   Bend
| pb  Pre-bend
| br  Bend release
| pbr Pre-bend release
| brb Bend release bend

************************************
Tap to rate this tab
 
# A B C D E F G H I J K L M N O P Q R S T U V W X Y Z