Song name
# A B C D E F G H I J K L M N O P Q R S T U V W X Y Z

Reaction Under Authority - You tab

#--------------------------------------PLEASE NOTE-----------------------------#
#This file is the author's own work and represents their interpretation of the #
#song. You may only use this file for private study, scholarship, or research. #
#------------------------------------------------------------------------------#

Author: Reaction Under Authority (trademark)
Song: You (copyright)
Album: Mindless Destruction
Intro:
e--------------------------------------------------------------------------------------------------|
b----3-----3-----3-----3-----3-----3-----3-----3------3-----3------3-------3-----3------3----3---3-|
g-3----3-----3-----3-----2------2-----2-----2-----3------3------3------3------2------2----2----2---|
d--------------------------------------------------------------------------------------------------|
a--------------------------------------------------------------------------------------------------|
E--------------------------------------------------------------------------------------------------|

e------------------------------------------------------------------------|
b----3------3------3--------3---------3-------3------3-------3-----------|
g-0-----0------0-------0---------2-------2-------2------2----------  x2 -|
d------------------------------------------------------------------------|
a------------------------------------------------------------------------|
E------------------------------------------------------------------------|

e-------------------------------------------------------------------------------------------------|
b--3--3--3--3--3--3--3--3--3--3--3--3--3--3--3--3--3--3--3--3--3--3--3--3--3--3--3--3--3--3--3--3-|
g--3--3--3--3--3--3--3--3--2--2--2--2--2--2--2--2--3--3--3--3--3--3--3--3--2--2--2--2--2--2--2--2-|
d-------------------------------------------------------------------------------------------------|
a-------------------------------------------------------------------------------------------------|
E-------------------------------------------------------------------------------------------------|

e---------------------------------------------------------------------|
b--3--3--3--3--3--3--3--3--3--3--3--3--3--3--3--3--3--3---------------|
g--2--2--0--0--0--0--0--0--0--0--2--2--2--2--2--2--2--2---------------|  x2
d-----------0---------0---------0--0-----0--0---0-----0---------------|
a---------------------------------------------------------------------|
E---------------------------------------------------------------------|

Verse:
e------------------------------[-----------[-------------------------------------------------------|
b------------------------------[-----------[-------------------------------------------------------|
g------------------------------[-----------[--------------------  Then play riif a with riff b 4x -|
d--7--7--7--7--7---------------[--   x3   -[-------------------------------------------------------|
a--5--5--5--5--5--8--8---------[-----------[-5--5--5--5--7--7--------------------------------------|
E-----------------6--6---------[-----------[-3--3--3--3--5--5--------------------------------------|
	Riff A					Riff B
Chorus:
e-----------------------------------------------------|
b-----------------------------------------------------|
g-----------------------------------------------------|
d--7--7--7--7-----------------------------------------|
a--5--5--5--5--5--5--5--5--7--7--7--7--8--8--8--8-----| x4
E----------------3--3--3--3--5--5--5--5--6--6--6--6---|

Bridge:
e-------------------------|
b-------------------------|
g-------------------------|
d-------------------------|
a--8--8--8--7--7--5--5--5-| x12
E--6--6--6--5--5--3--3--3-|

Order:

Intro
Verse
Chorus
Verse
Chorus
Bridge
Intro
Verse
chorus

Yeah the bass line is simple, same as guitar.  Derek is weird.
For every action there is an equal but opposite reaction.  REACTION UNDER AUTHORITY
Tap to rate this tab
# A B C D E F G H I J K L M N O P Q R S T U V W X Y Z