Song name
# A B C D E F G H I J K L M N O P Q R S T U V W X Y Z

Ready The Way - This Is The Way I Say I Love You Part 1 tab

This Is The Way I Say I Love You, Part 1                     


                                                                   Ready The Way
Track 1



     W                     Q    E  S E  S E  S S S S  
D||-------------------||-----------------------------|
A||-------------------||-----------------------------|
F||-------------------||*----------------------------|
C||-------------------||*--3----3--3-3--3-3--3-5-3-2-|
G||-------------------||---3----3--3-3--3-3--3-5-3-2-|
C||-------------------||---3----3--3-3--3-3--3-5-3-2-|


  E  E  E  E  E  E  S S S S    S S E  S S  S S  S S  S S S  S S S  
----------------------------|-------------------------------------|
----------------------------|-------------------------------------|
----------------------------|----------------7-10-9---------------|
--L--2--2--2--2--2--2-3-2-0-|--L-0-0----7-10--------10-7-8-10-7-0-|
--L--2--2--2--2--2--2-3-2-0-|--L-0-0----------------------------0-|
--L--2--2--2--2--2--2-3-2-0-|--L-0-0----------------------------0-|


  S S E  S S  S S  S S  S S S  S E       Q    E  S E  S E  S S S S  
-------------------------------------||----------------------------|
-------------------------------------||----------------------------|
----------------7-10-9--------------*||----------------------------|
--L-0-0----7-10--------10-7-8-10-7--*||--3----3--3-3--3-3--3-5-3-2-|
--L-0-0------------------------------||--3----3--3-3--3-3--3-5-3-2-|
--L-0-0------------------------------||--3----3--3-3--3-3--3-5-3-2-|


                         PM      PM PM    PM PM PM PM         
  E  E  E  E  E  E  E  S S     S S  E  E  S  E  S  E  S S E   
----------------------------|----------0--------------0-0-0--|
----------------------------|----------6--------------6-8-5--|
----------------------------|--------------------------------|
--L--2--2--2--2--2--2--2-0--|--L-0--0-----0--0--0--0---------|
--L--2--2--2--2--2--2--2-0--|--L-0--0-----0--0--0--0---------|
--L--2--2--2--2--2--2--2-0--|--L-0--0-----0--0--0--0---------|


  PM PM PM    PM    PM              PM PM PM    PM PM PM PM         
  S  S  E  E  S  E  S   E   Q       S  S  E  E  S  E  S  E  S S E   
-----------0-----0------0---0----|-----------0--------------0-0-0--|
-----------6-----8-----10--10----|-----------6--------------6-8-5--|
---------------------------------|---------------------------------|
--0--0--0-----0-----0------------|--0--0--0-----0--0--0--0---------|
--0--0--0-----0-----0------------|--0--0--0-----0--0--0--0---------|
--0--0--0-----0-----0------------|--0--0--0-----0--0--0--0---------|


  PM PM PM    PM    PM                PM PM PM   PM PM PM PM    PM PM  
  S  S  E  E  S  E  S   E   Q         S  S  Q    S  E  S  E  E  S  S   
-----------0-----0------0---0----||-----------------------------------|
-----------6-----8-----10--10----||-----------------------------------|
---------------------------------||*----------------------------------|
--0--0--0-----0-----0------------||*--0--0--0----0--0--0--0--0--0--0--|
--0--0--0-----0-----0------------||---0--0--0----0--0--0--0--0--0--0--|
--0--0--0-----0-----0------------||---0--0--0----0--0--0--0--0--0--0--|


  PM PM PM   PM PM PM PM                                       
  S  S  Q    S  E  S  E  Q          Q    E  S E  S E  S S S S  
-------------------------0-----||-----------------------------|
-------------------------6-----||-----------------------------|
------------------------------*||*----------------------------|
--0--0--0----0--0--0--0-------*||*--8----8--8-8--8-8--8-8-8-8-|
--0--0--0----0--0--0--0--------||---8----8--8-8--8-8--8-8-8-8-|
--0--0--0----0--0--0--0--------||---8----8--8-8--8-8--8-8-8-8-|


   E   S  S  S  S  S  S  S  S  S  S  S  S  S  S    Q    E  S E  S E  S S S S  
------------------------------------------------|----------------------------|
------------------------------------------------|----------------------------|
------------------------------------------------|----------------------------|
--12--12-12-15-15-15-15-14-14-14-14-12-12-12-12-|--8----8--8-8--8-8--8-8-8-8-|
--12--12-12-12-12-12-12-12-12-12-12-12-12-12-12-|--8----8--8-8--8-8--8-8-8-8-|
--12--12-12-12-12-12-12-12-12-12-12-12-12-12-12-|--8----8--8-8--8-8--8-8-8-8-|


  S S E  E  S S E  S E  S E       S S E  E  S S E  S E  S E   
------------------------------||-----------------------------|
------------------------------||-----------------------------|
-----------------------------*||-----------------------------|
--0-0-0-----0-0-8--0-7--0-5--*||--0-0-0-----0-0-7--0-5--0-3--|
--0-0-0-----0-0-8--0-7--0-5---||--0-0-0-----0-0-7--0-5--0-3--|
--0-0-0-----0-0-8--0-7--0-5---||--0-0-0-----0-0-7--0-5--0-3--|


  S S E  E  S S E  S E  S E     S S E  E  S S E  S E  S E   
-----------------------------|-----------------------------|
-----------------------------|-----------------------------|
-----------------------------|-----------------------------|
--0-0-0-----0-0-5--0-3--0-2--|--0-0-0-----0-0-3--0-2--0-3--|
--0-0-0-----0-0-5--0-3--0-2--|--0-0-0-----0-0-3--0-2--0-3--|
--0-0-0-----0-0-5--0-3--0-2--|--0-0-0-----0-0-3--0-2--0-3--|


  S S E  E  S S E  S E  S E     W                 
-----------------------------|-------------------|
-----------------------------|-------------------|
-----------------------------|-------------------|
--0-0-0-----0-0-3--0-2--0-0--|--0----------------|
--0-0-0-----0-0-3--0-2--0-0--|--0----------------|
--0-0-0-----0-0-3--0-2--0-0--|--0----------------|


     delay @ eigth note tempo                             
     E                        E   E   E   E   E   E   E   
|--------------------------------13--12--12--------------|
|----------------------------15--------------13----------|
|*--14-------------------------------------------12--12--|
|*-------------------------------------------------------|
|--------------------------------------------------------|
|--------------------------------------------------------|


   (will simulate picking on recording)                       
   E                                   E   E  E  E  E  E  E   
----------------------------------------------8--7-----------|
------------------------------------------10--------8--------|
--12-----------------------------------9---------------7--5--|
-------------------------------------------------------------|
-------------------------------------------------------------|
-------------------------------------------------------------|


   E   E   E   E   E   E   E   E      E   E   E   E   E   E   E   E   4x
----------13--12--12--------------|------15--15--15--15--17--17--17---||
------15--------------13----------|-----------------------------------||
--14----------------------12--12--|--12------------------------------*||
----------------------------------|----------------------------------*||
----------------------------------|-----------------------------------||
----------------------------------|-----------------------------------||


   Last 4x let palm mute ring                      
   PM                         PM PM PM PM PM       
   E                          E  E  E  E  E  Q     
--------------------------------------------------|
--------------------------------------------------|
*-------------------------------------------------|
*--0--------------------------0--0--0--0--0-------|
---0--------------------------0--0--0--0--0-------|
---0--------------------------0--0--0--0--0-------|


     PM PM PM PM PM PM         
  E  S  E  S  E  E  E  Q     8x
-----------------------------||
-----------------------------||
----------------------------*||
-----0--0--0--0--0--0-------*||
-----0--0--0--0--0--0--------||
-----0--0--0--0--0--0--------||


  2 bars of random noise, feedback                                
  S                                S S S S S S S S S S S S S S S  
-----------------------------------------------------------------|
--x--------------------------------x-x-x-x-x-x-x-x-x-x-x-x-x-x-x-|
-----------------------------------------------------------------|
-----------------------------------------------------------------|
-----------------------------------------------------------------|
-----------------------------------------------------------------|


  S S S S S S S S S S S S S S S S      Q    E  S E  S E  S S S S  
----------------------------------||-----------------------------|
--x-x-x-x-x-x-x-x-x-x-x-x-x-x-x-x-||-----------------------------|
----------------------------------||*----------------------------|
----------------------------------||*--3----3--3-3--3-3--3-5-3-2-|
----------------------------------||---3----3--3-3--3-3--3-5-3-2-|
----------------------------------||---3----3--3-3--3-3--3-5-3-2-|


  E  E  E  E  E  E  S S S S    S S E  S S  S S  S S  S S S  S S S  
----------------------------|-------------------------------------|
----------------------------|-------------------------------------|
----------------------------|----------------7-10-9---------------|
--L--2--2--2--2--2--2-3-2-0-|--L-0-0----7-10--------10-7-8-10-7-0-|
--L--2--2--2--2--2--2-3-2-0-|--L-0-0----------------------------0-|
--L--2--2--2--2--2--2-3-2-0-|--L-0-0----------------------------0-|


  S S E  S S  S S  S S  S S S  S E       Q    E  S E  S E  S S S S  
-------------------------------------||----------------------------|
-------------------------------------||----------------------------|
----------------7-10-9--------------*||----------------------------|
--L-0-0----7-10--------10-7-8-10-7--*||--3----3--3-3--3-3--3-5-3-2-|
--L-0-0------------------------------||--3----3--3-3--3-3--3-5-3-2-|
--L-0-0------------------------------||--3----3--3-3--3-3--3-5-3-2-|


  E  E  E  E  E  E  E  E     E  Q    S E  S E   Q     
--------------------------|--------------------------|
--------------------------|--------------------------|
--------------------------|--------------------------|
--L--2--2--2--2--2--2--2--|--0-------0-0--0-0--10----|
--L--2--2--2--2--2--2--2--|--0-------0-0--0-0--10----|
--L--2--2--2--2--2--2--2--|--0-------0-0--0-0--10----|


  E  Q    S E  S E  S  E.     E  Q    S E  S E   Q       H         H         
---------------------------|--------------------------|---------------------|
---------------------------|--------------------------|---------------------|
---------------------------|--------------------------|---------------------|
--8-------8-8--8-8--8-10---|--0-------0-0--0-0--10----|--8--------10--------|
--8-------8-8--8-8--8-10---|--0-------0-0--0-0--10----|--8--------10--------|
--8-------8-8--8-8--8-10---|--0-------0-0--0-0--10----|--8--------10--------|


      PM PM         PM   PM PM             
    S S  S   S S S  S E  S  S   S S S  E   
|-----------------------------------------|
|-----------------------------------------|
|*--7-------10-9-7----7--------10-9-7-----|
|*----7--8---------10----7--8---------10--|
|-----------------------------------------|
|-----------------------------------------|


  S S S  S S S  S S  S S S S  S S  S S      W                 
----------------------------------------||-------------------|
----------------------------------------||-------------------|
--7-----10-9-7----7-10-0-9-0-12-0-10-0-*||-------------------|
----7-8--------10----------------------*||--0----------------|
----------------------------------------||--0----------------|
----------------------------------------||--0----------------|


  Cue vocals and drum intro (no meter)                               
                                          PM PM PM PM PM             
  W                                       S  S  S  S  Q    H         
---------------------------------------|----------------------------|
---------------------------------------|----------------------------|
---------------------------------------|----------------------------|
--x------------------------------------|--0--0--0--0--0-------------|
---------------------------------------|--0--0--0--0--0-------------|
---------------------------------------|--0--0--0--0--0-------------|


     PM PM      PM PM       PM PM PM PM PM                                 
  E  E  E  Q    E  E  E     S  S  S  S  Q    H           W                 
-------------------------|----------------------------|-------------------|
-------------------------|----------------------------|-------------------|
-------------------------|----------------------------|-------------------|
-----0--0-------0--0-----|--0--0--0--0--0-------------|-------------------|
-----0--0-------0--0-----|--0--0--0--0--0-------------|-------------------|
-----0--0-------0--0-----|--0--0--0--0--0-------------|-------------------|


    Last 4 times let palm mute ring                         
    PM                              PM PM PM PM             
    S                               S  S  S  Q    H         
|----------------------------------------------------------|
|----------------------------------------------------------|
|*---------------------------------------------------------|
|*--0-------------------------------0--0--0--0-------------|
|---0-------------------------------0--0--0--0-------------|
|---0-------------------------------0--0--0--0-------------|


     PM PM      PM PM                            
  E  E  E  Q    E  E  E   8x  W                  
--------------------------||-------------------||
--------------------------||-------------------||
-------------------------*||-------------------||
-----0--0-------0--0-----*||--0----------------||
-----0--0-------0--0------||--0----------------||
-----0--0-------0--0------||--0----------------||




Duration Legend
---------------
W - whole
H - half
Q - quarter
E - 8th
S - 16th
T - 32nd
X - 64th
. - note dotted
|-n-|  - n-tuplets


Tablature Legend
----------------
L - tied note
x - dead note
g - grace note
(n) - ghost note
> - accentuded note
NH - natural harmonic
AH - artificial harmonic
TH - tapped harmonic
SH - semi harmonic
PH - pitch harmonic
h - hammer on
p - pull off
b - bend
br - bendRelease
pb - preBend
pbr - preBendRelease
brb - bendReleaseBend
\n/ - tremolo bar dip
\n - tremolo bar dive
-/n - tremolo bar Release up
/n\ - tremolo bar inverted dip
/n - tremolo bar return
-\n - tremolo bar Release down
S - shift slide
s - legato slide
/ -  slide into from below or out of upwards
\ -  slide into from above or out of downwards
~ - vibrato
W - wide vibrato
tr - trill
TP - tremolo picking
T - tapping
S - slap
P - pop
< - fade in
^ - brush up
v - brush down
Tap to rate this tab
# A B C D E F G H I J K L M N O P Q R S T U V W X Y Z